Stein Um Stein Bass Tab - Rammstein






----------------------------------------------------------------------------
     Stein Um Stein - Rammstein
----------------------------------------------------------------------------

Tabbed By : Bee-Ay
e-mail: Leviathan_ben@hotmail.com

Tuning: Drop C

Verse:
F|----------------------------|--------------------------------------------|
C|---------------------0---2h3|-------------------------------------0---2h3|
G|5----1----5-----1-----------|---1----5----1----5----1----5----1----------|
C|----------------------------|--------------------------------------------|


F|----------------------------------------------------|
C|----------------------------------------------------|
G|1----5----1----5----1----5----1----5----1-----------|
C|----------------------------------------------3----5|


Chorus:
F|-------------------------------------------|
C|*-----------------------------------------*|
G|*--3h5-5--3h5-5--3h5---0h1-1--0h1-1--0h1--*|
C|-------------------------------------------|


And bridge:
F|-------------|----------------|--------------------------------|
C|-------------|----------------|--------------------------------|
G|5---1---5---1|---5---1---5---1|---5---1---5---1---5---1--------|
C|-------------|----------------|----------------------------3--5|


In Solo (and just till the song ends):
F|-------------------------------------------------------------------------|
C|*-----------------------------------------------------------------------*|
G|*-3h5-5--3h5-5--3h5--3h5-5--3h5-5--3h5---0h1-1--0h1-1-0h1-0-0-0-0-0-0-0-*|
C|-------------------------------------------------------------------------|


No one tabbed it out, so i did.

h: Hammer-on.







Like us on Facebook