Stirb Nicht Vor Mir Dont Die Before I Do (ver2) Tab - Rammstein






-----------------------------------------------------------------------------
         Stirb nicht vor mir (Don't die before I do)- Rammstein             
-----------------------------------------------------------------------------
Tabbed by:Carlos Yanko
Email:yankork@hotmail.com

Cualquier duda o aclaracion envienme un email, vivo en el D.F. 
por si quieren hacer una banda de covers.

Intro

e|-------------------------------------------------------------------------|
B|--------10--------------10-------------10--------------10-----------10---|
G|-----11----11--------11----11-------11----11---------11---11------11--11-|
D|--12--------------12-------------11----------------11-----------12-------|
A|-------------------------------------------------------------------------|
E|-------------------------------------------------------------------------|

e|-------------------------------------------------------------------------|
B|--------10---------------------------------------------------------------|
G|-----11----11------------------------------------------------------------|
D|--12---------------9/11--12--11----9/11--12------------------------------|
A|---------------------------------------------12--------------------------|
E|-------------------------------------------------------------------------|


Esto es lo que sigue durante  el resto de la cancin

e|--3---3--x-3--2-2-2----7--7--x-7-x-7--7--7-------------------------------|
B|--5---5--x-5--4-4-4----9--9--x-9-x-9--9--9-------------------------------|
G|-------------------------------------------------------------------------|
D|-------------------------------------------------------------------------|
A|-------------------------------------------------------------------------|
E|-------------------------------------------------------------------------|


ARRIVA MEXICOOOOOOOOOO






Like us on Facebook