Stirb Nicht Vor Mir Dont Die Before I Do (ver3) Tab - Rammstein






This is a correction made to the firs tab

e---------------------------------------------|
B------10-------10------10-------10-----------|
G----11--11---11--11--11---11--11--11---------|
D--12------12-------11-------11---------------|
A---------------------------------------------|
E---------------------------------------------|


e-----------------------------------------------------|
B------10---------------------------------------------|
G----11--11--------------------------------------4s6b-|
D--12------12--9--11--12--11---9--11--12--11--7-------|
A-----------------------------------------------------|
E-----------------------------------------------------|

I think this is it.. nice and easy :)






Like us on Facebook