Stirb Nicht Vor Mir Dont Die Before I Do Tab - Rammstein






Main riff:

e|-----5-------5-------5-------5---|-----5-------5-------2-------2---|
B|---7---7---7---7---7---7---7---7-|---7---7---7---7---2---2---2---2-|
G|-7-------7-------6-------6-------|-7-------7-------4-------4-------|
D|---------------------------------|---------------------------------|
A|---------------------------------|---------------------------------|
E|---------------------------------|---------------------------------|

used all throughout the song. you'll know when to play it.

chords (in this order):

      B   F#  G   E
e|----2---2---3---0---|
B|----3---2---3---0---|
G|----4---3---0---1---|
D|----4---4---0---2---|
A|----2---4---2---2---|
E|----2---2---3---0---|

Enjoy!






Like us on Facebook