Te Quiero Puta Bass Tab - Rammstein






Song: Te Quiero Puta!
Band: Rammstein

This took me AGES to tab and it wasnt easy but I gave it my best shot.

4 string

Single note
F|----------------------------------------------------------------|
C|----------------------------------------------------------------|
G|----------------------------------------------------------------|
C|-0--------------------------------------------------------------|

Chorus
F|----------------------------------------------------------------|
C|----------------------------------------------------------------|
G|----------------------------------------------------------------|
C|-0----1---1---0----1---1---0----1-----1--0-----1---0---1----1---|

Verse
F|----------------------------------------------------------------|
C|----------------------------------------------------------------|
G|----------------------------------------------------------------|
C|-0---0---0---0---0---0---0---0---0---0---0---0---0---0---0---0--|

Pre chorus
F|----------------------------------------------------------------|
C|----------------------------------------------------------------|
G|----------------------------------------------------------------|
C|--0-h-1-p-0-----0---0----0--0---0---0------0-h-1-----1-p-0------|

F|----------------------------------------------------------------|
C|----------------------------------------------------------------|
G|----------------------------------------------------------------|
C|--0-h-1-p-0-----0---0----0--0---0---0------0-h-1--1-------------|

Bridge A
F|----------------------------------------------------------------|
C|----------------------------------------------------------------|
G|----------------------------------------------------------------|
C|-0------0---0----0------0---0----0------0---0----0------0---0---|

Bridge B
F|----------------------------------------------------------------|
C|----------------------------------------------------------------|
G|----------------------------------------------------------------|
C|-0------0---0----0------0---0----0------0---0-------------------|

Bridge C
F|----------------------------------------------------------------|
C|----------------------------------------------------------------|
G|----------------------------------------------------------------|
C|-0------0---0----0------0---0----0------0---0---0-------0-------|

Ending
F|----------------------------------------------------------------|
C|----------------------------------------------------------------|
G|----------------------------------------------------------------|
C|0-0-0-0-0-0-0-0-0-0-0-0-0-0-0-0-0-0-0-0-0-0-0-0-0-0-0-0-0-0-0-0-|




5 string

Single note
G|----------------------------------------------------------------|
D|----------------------------------------------------------------|
A|----------------------------------------------------------------|
E|----------------------------------------------------------------|
B|-0--------------------------------------------------------------|

Chorus
G|----------------------------------------------------------------|
D|----------------------------------------------------------------|
A|----------------------------------------------------------------|
E|----------------------------------------------------------------|
B|-1----2---2---1----2---2---1----2-----2--1-----2---1---2----2---|

Verse
G|----------------------------------------------------------------|
D|----------------------------------------------------------------|
A|----------------------------------------------------------------|
E|----------------------------------------------------------------|
B|-1---1---1---1---1---1---1---1---1---1---1---1---1---1---1---1--|

Pre chorus
G|----------------------------------------------------------------|
D|----------------------------------------------------------------|
A|----------------------------------------------------------------|
E|----------------------------------------------------------------|
B|--1-h-2-p-1-----1---1----1--1---1---1------1-h-2-----2-p-1------|

G|----------------------------------------------------------------|
D|----------------------------------------------------------------|
A|----------------------------------------------------------------|
E|----------------------------------------------------------------|
B|--1-h-2-p-1-----1---1----1--1---1---1------1-h-2--2-------------|

Bridge A
G|----------------------------------------------------------------|
D|----------------------------------------------------------------|
A|----------------------------------------------------------------|
E|----------------------------------------------------------------|
B|-1------1---1----1------1---1----1------1---1----1------1---1---|

Bridge B
G|----------------------------------------------------------------|
D|----------------------------------------------------------------|
A|----------------------------------------------------------------|
E|----------------------------------------------------------------|
B|-1------1---1----1------1---1----1------1---1-------------------|

Bridge C
G|----------------------------------------------------------------|
D|----------------------------------------------------------------|
A|----------------------------------------------------------------|
E|----------------------------------------------------------------|
B|-1------1---1----1------1---1----1------1---1----1------1-------|

Ending
G|----------------------------------------------------------------|
D|----------------------------------------------------------------|
A|----------------------------------------------------------------|
E|----------------------------------------------------------------|
B|1-1-1-1-1-1-1-1-1-1-1-1-1-1-1-1-1-1-1-1-1-1-1-1-1-1-1-1-1-1-1-1-|

Song structure:
Single note x1
Chorus x4
Verse x8
Pre chorus x1
Chorus x4
Single note x1
Verse x8
Pre chorus x2
Chorus x5
Single note x1
Chorus x1
Single note x1
Chorus x1
Single note x1
Bridge A x1
Bridge B x1
Bridge A x3
Bridge C x1
Single note x1
Chorus x4
Single note x1
Ending x1
Single note x1

And there it is. Like I said, I gave it my best shot.

Please rate.

Enjoy!!!






Like us on Facebook