Weisses Fleisch Tab - Rammstein






          WeiBes Fleisch
          By Rammstein
          Tabbed By Mike Gagnon
          
          Drop D Tuning
          
          Main Part
          
          e---------------
          B---------------
          G---------------
          D---------------
          A-----3/4-------
          D-0-0-3/4-------
          
          Chorus
          
          e ---------------------
          B----------------------
          G----------------------
          D-1-----6-5-3--------5-
          A-1-----6-5-3------3-5-
          D-1-----6-5-3------3-5-






Like us on Facebook