Wo Bist Du Bass Tab - Rammstein






Song: Wo Bist Du
Band: Rammstein
Tabbed by: cianormo

This is a nice song and I really want to learn it so I decided to tab it. I found it 
to tab so Im open to all suggestions.

4 string

Chorus
G|----------------------------------------------------------------|
D|----------------------------------------------------------------|
A|----------------------------------------------------------------|
D|-5-5-5-5-5-5-5-5-5-5-5-5-5-5-5-5-1-1-1-1-1-1-1-1-1-1-1-1-1-1-1-1|

G|----------------------------------------------------------------|
D|----------------------------------------------------------------|
A|-1-1-1-1-1-1-1-1-1-1-1-1-1-1-1-1-3-3-3-3-3-3-3-3-3-3-3-3-3-3-3-3|
D|----------------------------------------------------------------|

Verse
G|----------------------------------------------------------------|
D|----------------------------------------------------------------|
A|-3-3-3-3-3-3-3-3-3-3-3-3-3-3-3-3-3-3-3-3-3-3-3-3-3-3-3-3-3-3-3-3|
D|----------------------------------------------------------------|

Pre Chorus
G|----------------------------------------------------------------|
D|-5-5-5-5-5-5-5-5-5-5-5-5-5-5-5-5-1-1-1-1-1-1-1-1-1-1-1-1-1-1-1-1|
A|----------------------------------------------------------------|
D|----------------------------------------------------------------|

G|-3-3-3-3-3-3-3-3-3-3-3-3-3-3-3-3-5-5-5-5-5-5-5-5-5-5-5-5-5-5-5-5|
D|----------------------------------------------------------------|
A|----------------------------------------------------------------|
D|----------------------------------------------------------------|


5 string

Chorus
G|----------------------------------------------------------------|
D|----------------------------------------------------------------|
A|----------------------------------------------------------------|
E|-3-3-3-3-3-3-3-3-3-3-3-3-3-3-3-3--------------------------------|
B|---------------------------------4-4-4-4-4-4-4-4-4-4-4-4-4-4-4-4|

G|----------------------------------------------------------------|
D|----------------------------------------------------------------|
A|-1-1-1-1-1-1-1-1-1-1-1-1-1-1-1-1-3-3-3-3-3-3-3-3-3-3-3-3-3-3-3-3|
E|----------------------------------------------------------------|
B|----------------------------------------------------------------|

Verse
G|----------------------------------------------------------------|
D|----------------------------------------------------------------|
A|-3-3-3-3-3-3-3-3-3-3-3-3-3-3-3-3-3-3-3-3-3-3-3-3-3-3-3-3-3-3-3-3|
E|----------------------------------------------------------------|
B|----------------------------------------------------------------|

Pre Chorus
G|----------------------------------------------------------------|
D|-5-5-5-5-5-5-5-5-5-5-5-5-5-5-5-5-6-6-6-6-6-6-6-6-6-6-6-6-6-6-6-6|
A|----------------------------------------------------------------|
E|----------------------------------------------------------------|
B|----------------------------------------------------------------|

G|-3-3-3-3-3-3-3-3-3-3-3-3-3-3-3-3-5-5-5-5-5-5-5-5-5-5-5-5-5-5-5-5|
D|----------------------------------------------------------------|
A|----------------------------------------------------------------|
E|----------------------------------------------------------------|
B|----------------------------------------------------------------|

Song Structure:
Chorus x2
Verse x2
Pre Chorus x2
Chorus x2
Verse x2
Chorus x6

And thats it. Im not entirely sure about it and the tuning may be wrong but I 
have the jist of it. Let me know if Im right or wrong.

Please rate!

Enjoy!!!






Like us on Facebook