Wollt Ihr Das Bett In Flammen Sehen (ver4) Bass Tab - Rammstein






This is the entire song

G---------------------------------------------------|
D---------------------------------------------------|
A-5-----6-----5--------3/---5-----6-----5--------3/-|
D----0-----0-----0--0----------0-----0-----0--0-----|

G-----------------------------------------------------------------------------|
D-----------------------------------------------------------------------------|
A-5-----6-----5--------3/---5-----6-----5--------3/---5-----6-----5--------3/-|
D----0-----0-----0--0----------0-----0-----0--0----------0-----0-----0--0-----|

G-------------------------------------------------------------------|
D-------------------------------------------------------------------|
A-5-----6-----5--------3/---5-----6-----5--------3/---5-----6-----5-|
D----0-----0-----0--0----------0-----0-----0--0----------0-----0----|

G-----------------------------------------------------------------------------|
D-----------------------------------------------------------------------------|
A-5-----6-----5--------3/---5-----6-----5--------3/---5-----6-----5--------3/-|
D----0-----0-----0--0----------0-----0-----0--0----------0-----0-----0--0-----|

G-----------------------------------------------------------------------------|
D-----------------------------------------------------------------------------|
A-5-----6-----5--------3/---5-----6-----5--------3/---5-----6-----5--------3/-|
D----0-----0-----0--0----------0-----0-----0--0----------0-----0-----0--0-----|

G-----------------------------------------------------------------------------|
D-----------------------------------------------------------------------------|
A-5-----6-----5--------3/---5-----6-----5--------3/---5-----6-----5--------3/-|
D----0-----0-----0--0----------0-----0-----0--0----------0-----0-----0--0-----|

G-----------------------------------------------------------------------------|
D-----------------------------------------------------------------------------|
A-5-----6-----5--------3/---5-----6-----5--------3/---5-----6-----5--------3/-|
D----0-----0-----0--0----------0-----0-----0--0----------0-----0-----0--0-----|

G-----------------------------------------------------------------------------|
D-----------------------------------------------------------------------------|
A-5-----6-----5--------3/---5-----6-----5--------3/---5-----6-----5--------3/-|
D----0-----0-----0--0----------0-----0-----0--0----------0-----0-----0--0-----|

G-----------------------------------------------------------------------------|
D-----------------------------------------------------------------------------|
A-5-----6-----5--------3/---5-----6-----5--------3/---5-----6-----5--------3/-|
D----0-----0-----0--0----------0-----0-----0--0----------0-----0-----0--0-----|

G-----------------------------------------------------------------------------|
D-----------------------------------------------------------------------------|
A-5-----6-----5--------3/---5-----6-----5--------3/---5-----6-----5--------3/-|
D----0-----0-----0--0----------0-----0-----0--0----------0-----0-----0--0-----|

G-----------------------------------------------------------------------------|
D-----------------------------------------------------------------------------|
A-5-----6-----5--------3/---5-----6-----5--------3/---5-----6-----5--------3/-|
D----0-----0-----0--0----------0-----0-----0--0----------0-----0-----0--0-----|

G-----------------------------------------------------------------------------|
D-----------------------------------------------------------------------------|
A-5-----6-----5--------3/---5-----6-----5--------3/---5-----6-----5--------3/-|
D----0-----0-----0--0----------0-----0-----0--0----------0-----0-----0--0-----|

G-----------------------------------------------------------------------------|
D-----------------------------------------------------------------------------|
A-5-----6-----5--------3/---5-----6-----5--------3/---5-----6-----5--------3/-|
D----0-----0-----0--0----------0-----0-----0--0----------0-----0-----0--0-----|

G-----------------------------------------------------------------------------|
D-----------------------------------------------------------------------------|
A-5-----6-----5--------3/---5-----6-----5--------3/---5-----6-----5--------3/-|
D----0-----0-----0--0----------0-----0-----0--0----------0-----0-----0--0-----|

G-----------------------------------------------------------------------------|
D-----------------------------------------------------------------------------|
A-5-----6-----5--------3/---5-----6-----5--------3/---5-----6-----5--------3/-|
D----0-----0-----0--0----------0-----0-----0--0----------0-----0-----0--0-----|

G-----------------------------------------------------------------------------|
D-----------------------------------------------------------------------------|
A-5-----6-----5--------3/---5-----6-----5--------3/---5-----6-----5--------3/-|
D----0-----0-----0--0----------0-----0-----0--0----------0-----0-----0--0-----|

G-----------------------------------------------------------------------------|
D-----------------------------------------------------------------------------|
A-5-----6-----5--------3/---5-----6-----5--------3/---5-----6-----5--------3/-|
D----0-----0-----0--0----------0-----0-----0--0----------0-----0-----0--0-----|

G-----------------------------------------------------------------------------|
D-----------------------------------------------------------------------------|
A-5-----6-----5--------3/---5-----6-----5--------3/---5-----6-----5--------3/-|
D----0-----0-----0--0----------0-----0-----0--0----------0-----0-----0--0-----|

G-----------------------------------------------------------------------------|
D-----------------------------------------------------------------------------|
A-5-----6-----5--------3/---5-----6-----5--------3/---5-----6-----5--------3/-|
D----0-----0-----0--0----------0-----0-----0--0----------0-----0-----0--0-----|

G-----------------------------------------------------------------------------|
D-----------------------------------------------------------------------------|
A-5-----6-----5--------3/---5-----6-----5--------3/---5-----6-----5--------3/-|
D----0-----0-----0--0----------0-----0-----0--0----------0-----0-----0--0-----|

G-----------------------------------------------------------------------------|
D-----------------------------------------------------------------------------|
A-5-----6-----5--------3/---5-----6-----5--------3/---5-----6-----5--------3/-|
D----0-----0-----0--0----------0-----0-----0--0----------0-----0-----0--0-----|

G-----------------------------------------------------------------------------|
D-----------------------------------------------------------------------------|
A-5-----6-----5--------3/---5-----6-----5--------3/---5-----6-----5--------3/-|
D----0-----0-----0--0----------0-----0-----0--0----------0-----0-----0--0-----|

G-----------------------------------------------------------------------------|
D-----------------------------------------------------------------------------|
A-5-----6-----5--------3/---5-----6-----5--------3/---5-----6-----5--------3/-|
D----0-----0-----0--0----------0-----0-----0--0----------0-----0-----0--0-----|

G-----------------------------------------------------------------------------|
D-----------------------------------------------------------------------------|
A-5-----6-----5--------3/---5-----6-----5--------3/---5-----6-----5--------3/-|
D----0-----0-----0--0----------0-----0-----0--0----------0-----0-----0--0-----|

G-----------------------------------------------------------------------------|
D-----------------------------------------------------------------------------|
A-5-----6-----5--------3/---5-----6-----5--------3/---5-----6-----5--------3/-|
D----0-----0-----0--0----------0-----0-----0--0----------0-----0-----0--0-----|

G-----------------------------------------------------------------------------|
D-----------------------------------------------------------------------------|
A-5-----6-----5--------3/---5-----6-----5--------3/---5-----6-----5--------3/-|
D----0-----0-----0--0----------0-----0-----0--0----------0-----0-----0--0-----|

G-----------------------------------------------------------------------------|
D-----------------------------------------------------------------------------|
A-5-----6-----5--------3/---5-----6-----5--------3/---5-----6-----5--------3/-|
D----0-----0-----0--0----------0-----0-----0--0----------0-----0-----0--0-----|

G----------------------------------------------------------------------------|
D----------------------------------------------------------------------------|
A-5-----6-----5--------3/---5-----6-----5--------3/--------------------------|
D----0-----0-----0--0----------0-----0-----0--0-------0-0-0-0-3--0----0----0-|

G----------------------------------------------------------------------------|
D----------------------------------------------------------------------------|
A----------------------------------------------------------------------------|
D-0-0-0-0-3--0----0----0----0-0-0-0-3--0----0----0----0-0-0-0-3--0----0----0-|

G----------------------------------------------------------------------------|
D----------------------------------------------------------------------------|
A----------------------------------------------------------------------------|
D-0-0-0-0-3--0----0----0----0-0-0-0-3--0----0----0----0-0-0-0-3--0----0----0-|

G--------------------------------------------------------------------------|
D--------------------------------------------------------------------------|
A--------------------------------------------------------------------------|
D-0-0-0-0-3--0------------0-0-0-0-3--0----0----0----0-0-0-0-3--0----0----0-|

G----------------------------------------------------------------------------|
D----------------------------------------------------------------------------|
A----------------------------------------------------------------------------|
D-0-0-0-0-3--0----0----0----0-0-0-0-3--0----0----0----0-0-0-0-3--0----0----0-|

G---------------------------------------------------------------------------|
D---------------------------------------------------------------------------|
A---------------------------------------------------------------------------|
D-0-0-0-0-3--0----0----0----0-0-0-0-3--0------------3-3-3-3-3--0----0--0--0-|

G-----------------------------------------------------------------|
D-----------------------------------------------------------------|
A----------3/---5-----6-----5--------3/---5-----6-----5--------3/-|
D-0--0--0----------0-----0-----0--0----------0-----0-----0--0-----|

G-----------------------------------------------------------------------------|
D-----------------------------------------------------------------------------|
A-5-----6-----5--------3/---5-----6-----5--------3/---5-----6-----5--------3/-|
D----0-----0-----0--0----------0-----0-----0--0----------0-----0-----0--0-----|

G-----------------------------|
D-----------------------------|
A-5-----6-----5--------3/---5-|
D----0-----0-----0--0---------|

G-----------------------------------------------------------------------------|
D-----------------------------------------------------------------------------|
A-5-----6-----5--------3/---5-----6-----5--------3/---5-----6-----5--------3/-|
D----0-----0-----0--0----------0-----0-----0--0----------0-----0-----0--0-----|

G-----------------------------------------------------------------------------|
D-----------------------------------------------------------------------------|
A-5-----6-----5--------3/---5-----6-----5--------3/---5-----6-----5--------3/-|
D----0-----0-----0--0----------0-----0-----0--0----------0-----0-----0--0-----|

G-----------------------------------------------------------------------------|
D-----------------------------------------------------------------------------|
A-5-----6-----5--------3/---5-----6-----5--------3/---5-----6-----5--------3/-|
D----0-----0-----0--0----------0-----0-----0--0----------0-----0-----0--0-----|

G-----------------------------------------------------------------------------|
D-----------------------------------------------------------------------------|
A-5-----6-----5--------3/---5-----6-----5--------3/---5-----6-----5--------3/-|
D----0-----0-----0--0----------0-----0-----0--0----------0-----0-----0--0-----|

G-----------------------------------------------------------------------------|
D-----------------------------------------------------------------------------|
A-5-----6-----5--------3/---5-----6-----5--------3/---5-----6-----5--------3/-|
D----0-----0-----0--0----------0-----0-----0--0----------0-----0-----0--0-----|

G-----------------------------------------------------------------------------|
D-----------------------------------------------------------------------------|
A-5-----6-----5--------3/---5-----6-----5--------3/---5-----6-----5--------3/-|
D----0-----0-----0--0----------0-----0-----0--0----------0-----0-----0--0-----|

G-----------------------------------------------------------------------------|
D-----------------------------------------------------------------------------|
A-5-----6-----5--------3/---5-----6-----5--------3/---5-----6-----5--------3/-|
D----0-----0-----0--0----------0-----0-----0--0----------0-----0-----0--0-----|

G-----------------------------------------------------------------------------|
D-----------------------------------------------------------------------------|
A-5-----6-----5--------3/---5-----6-----5--------3/---5-----6-----5--------3/-|
D----0-----0-----0--0----------0-----0-----0--0----------0-----0-----0--0-----|

G-----------------------------------------------------------------------------|
D-----------------------------------------------------------------------------|
A-5-----6-----5--------3/---5-----6-----5--------3/---5-----6-----5--------3/-|
D----0-----0-----0--0----------0-----0-----0--0----------0-----0-----0--0-----|

G-----------------------------------------------------------------------------|
D-----------------------------------------------------------------------------|
A-5-----6-----5--------3/---5-----6-----5--------3/---5-----6-----5--------3/-|
D----0-----0-----0--0----------0-----0-----0--0----------0-----0-----0--0-----|

G-----------------------------------------------------------------------------|
D-----------------------------------------------------------------------------|
A-5-----6-----5--------3/---5-----6-----5--------3/---5-----6-----5--------3/-|
D----0-----0-----0--0----------0-----0-----0--0----------0-----0-----0--0-----|

G-----------------------------------------------------------------------------|
D-----------------------------------------------------------------------------|
A-5-----6-----5--------3/---5-----6-----5--------3/---5-----6-----5--------3/-|
D----0-----0-----0--0----------0-----0-----0--0----------0-----0-----0--0-----|

G-----------------------------------------------------------------------------|
D-----------------------------------------------------------------------------|
A-5-----6-----5--------3/---5-----6-----5--------3/---5-----6-----5--------3/-|
D----0-----0-----0--0----------0-----0-----0--0----------0-----0-----0--0-----|

G-----------------------------------------------------------------------------|
D-----------------------------------------------------------------------------|
A-5-----6-----5--------3/---5-----6-----5--------3/---5-----6-----5--------3/-|
D----0-----0-----0--0----------0-----0-----0--0----------0-----0-----0--0-----|

G---
D---
A-5-
D---

For anyone who actually gives a s**t what theyre singing about here are the lyrics in 
and in English:

Wollt ihr das bett in flammen sehen
Wollt ihr in haut und haaren untergehen
Ihr wollt doch auch den dolch ins laken stecken
Ihr wollt doch auch das blut vom degen lecken

Rammstein

Ihr seht die kreuze auf dem kissen
Ihr meint euch darf die unschuld kssen
Ihr glaubt zu tten wre schwer
Doch wo kommen all die toten her

Rammstein

Sex ist ein schlacht
Liebe ist krieg
Wollt ihr das bett in flammen sehen
Wollt ihr in haut und haaren untergehen
Ihr wollt doch auch den dolch ins laken stecken
Ihr wollt doch auch das blut vom degen lecken

Rammstein


translation:

Do you want to see the bed in flames
------------------------------------
Do you want to see the bed in flames
Do you want to totally perish
You want to stick the dagger in the sheet
You want to lick the blood from the dagger
Rammstein!

You see the crosses on the pillow
You think innocence may kiss you
You believe killing might be hard
But where are all the dead coming from

Rammstein!
Sex is a battle.
Love is war.
Do you want to see the bed in flames
Do you want to totally perish
You want to stick the dagger in the sheet
You want to lick the blood from the dagger
Rammstein!






Like us on Facebook