Wollt Ihr Das Bett In Flammen Sehen Tab - Rammstein






Wollt Ihr Das Bett In Flammen Sehen

R A M M S T E I N

Tabbed By Aaron Bridgeman (rokken@sicness.net)


http://bogans.arecool.net

KEY:
pm. = palm mute
T   = tenth fret (saves space to write)

MAIN RIFF:
e|-----------------|
B|-----------------|
G|-----------------|
D|-5-7---8---7-----|
A|-3-5---6---5-----|
D|-----0---0---0-0-|
pm     .   .   . .

LEAD (On "Rammstein" part):
e|-------------------------------|
B|-------------------------------|
G|-------------------------------|
D|-T-T-T-T-T-T-T-T-T-T-T-T-T-T-T-|
A|-8-8-8-8-8-8-8-8-8-8-8-8-8-8-8-|
D|-------------------------------|

BRIDGE:
e|-------------------|
B|-------------------|
G|-------------------|
D|-0------3-0--------|
A|-0------3-0--0--0--|
D|-0-0-0--3-0--0--0--|
pm   . .

And done.






Like us on Facebook