Zwitter Tab - Rammstein






 Artist: RAMMS+EIN
 Album:  MUTTER
 Song:   ZWITTER
 Tab By: Trinitymasaki13
 Trinitymasaki13@aol.com
 
 Just put this up because the guy who wrote 
 the intro did it totally wrong.  This is 
 about 98% right I think.  If you have any 
 questions e-mail me or listen to the song
 for the timing. Also if you want a RAMMS+EIN 
 song tabbed e-mail me. =)

 = SILDE
       PM = PLAM MUTE
h = HOLD

 INTRO  DO NOT PLAM MUTE!!!!!!
(Play at the very bottom of the strings
        down past the pick-ups. This will give 
that trashy sound you hear.) 
 E-------------------------------------- 
 B-------------------------------------- 
 G-------------------------------------- 
 D--------------------------------------
 A--------------------------------------
 D-0-0-0-0-0-0-53---0-0-0-0-0-1-0-0-1h- 
0:00 through 0:12 of the song 

 Main Riff (Play Plam Muted)
 E------------------------------------ 
 B------------------------------------ 
 G------------------------------------ 
 D-0-0-0-0-0-0-53---0-0-0-0-0-1h-0-1- 
 A-0-0-0-0-0-0-53---0-0-0-0-0-1h-0-1- 
 D-0-0-0-0-0-0-53---0-0-0-0-0-1h-0-1- 
   PM.............   PM...............

 Chorus 
 E----------------------------------------------------------------- 
 B----------------------------------------------------------------- 
 G-8-8-8-8-8-8-8-8-5-5-5-5-5-5-5-5-3-3-3-3-3-3-3-3-3-3-3-3--------- 
 D-8-8-8-8-8-8-8-8-5-5-5-5-5-5-5-5-3-3-3-3-3-3-3-3-3-3-3-3-----1-3- 
 A-6-6-6-6-6-6-6-6-3-3-3-3-3-3-3-3-1-1-1-1-1-1-1-1-1-1-1-1-1-3----- 
 D----------------------------------------------------------------- 
   Eins fr mich...                            eins fr dich...
 E----------------------------------------------------------------- 
 B----------------------------------------------------------------- 
 G-8-8-8-8-8-8-8-8-5-5-5-5-5-5-5-5--------------------------------- 
 D-8-8-8-8-8-8-8-8-5-5-5-5-5-5-5-5-5-5-5-5-5-5-5-5-5-5-5-5-5-5-5-5- 
 A-6-6-6-6-6-6-6-6-3-3-3-3-3-3-3-3-5-5-5-5-5-5-5-5-5-5-5-5-5-5-5-5- 
 D---------------------------------5-5-5-5-5-5-5-5-5-5-5-5-5-5-5-5- 

 LYRICS/SONG GUIDE:

 INTRO

 Main Riff

 INTRO (Play Lightly)
 Ich hab ihr einen Kuss gestohlen
 sie wollte sich ihn wiederholen
 ich hab sie nicht mehr losgelassen
 verschmolzen so zu einer Masse 
 so ist es mir nur allzurecht
 ich bin ein schnes Zweigeschlecht
 zwei Seelen unter meiner Brust
 zwei Geschlechter eine Lust

 Main Riff
 Zwitter

 INTRO (Played Lightly)
 Ich gehe anders durch den Tag
 ich bin der schnste Mensch von allen
 ich sehe wunderbare Dinge
 die sind mir vorher gar nicht aufgefallen
 ich kann mich jeden Tag beglcken
 ich kann mir selber Rosen schicken
 da ist kein zweiter und kein dritter
 eins und eins das ist gleich

 Main Riff
 Zwitter
 ich bin so verliebt
 Zwitter
 Iich bin in mich verliebt 

 Chorus
 Eins fr mich 
 eins fr dich 
 gibt es nicht 
 fr mich
 Eins fr mich 
 eins fr dich
 eins und eins 
 das bin ich

 INTRO (Played Lightly)
 Ich bin alleine doch nicht allein
 ich kann mit mir zusammen sein
 ich ksse frh mein Spiegelbild
 und schlafe abends mit mir ein
 wenn die anderen Mdchen suchten
 konnt ich mich schon selbst befruchten
 so bin ich dann auch nicht verzagt
 wenn einer zu mir "Fick dich" sagt

 Main Riff
 Zwitter
 ich bin so verliebt
 Zwitter
 ich bin in mich verliebt

 Chorus
 Eins fr mich 
 eins fr dich 
 gibt es nicht 
 fr mich
 Eins fr mich 
 eins fr dich
 eins und eins 
 das bin ich
 
 Main Riff (As the song fades out...)






Like us on Facebook