Rock N Roll Radio Bass Tab - Ramones






INTRO
|-------------------------|
|-------------------------|
|-3--3------------3---3---|
|--3---3-33333333---3---3-|

|------------------|
|------------------|
|------------------| 
|-3-3-333-3333-1-2-|

INTERLUDE
|-----------------------------------------------------|
|-----------------22-55-7-5-00-44-77-9-7-55-22-00-----|
|----22-55-7-5-33---------------------------------0-2-|
|-33--------------------------------------------------|

CHORUS
|--------------------|
|--------------------|
|----------3333-5555-|
|-33333333-----------|

BRIDGE
|-------------------------------------|
|-------------------------------------|
|-33333333-55555555-------------------|
|-------------------33333333-00000000-|

That's mor or less it. Some of these are used for parts other than their title. Buh-bye!






Like us on Facebook