Rockaway Beach Bass Tab - Ramones






The bass tabs for all the Ramones songs are just the bottom note of the guitar power chords.

Intro:
|-----------------------------------------------------------------|
|-----------------------------------------------------------------|
|-----------------------------------------------------------------|
|-4/5-5-5-5-5-5-5-5-5-5-5-5-5-5-4/5-5-5-5-5-5-5-5-5-5-5-5-5-5-5-5-|

Verse:
|-----------------------------------------------------------------|
|-----------------------------------------------------------------|
|---------------------------------5-5-5-5-5-5-5-5-----------------| x2
|-5-5-5-5-5-5-5-5-5-5-5-5-5-5-5-5-----------------7-7-7-7-7-7-7-7-|

Chorus:
|-----------------------------------------------------------------|
|-----------------------------------------------------------------|
|-----------------5-5-5-5-5-5-5-5---------------------------------| x2
|-5-5-5-5-5-5-5-5-----------------5-5-5-5-5-5-5-5-7-7-7-7-7-7-7-7-|

Then play this:
|-----------------------------------------------------------------|
|-----------------------------------------------------------------|
|-----------------------------------------------------------------|
|-10-5--5-5-5-8-3--3-3-3-10-5--5-5-5-8-3--3-3-3-------------------|

Chorus (1x): 
|-----------------------------------------------------------------|
|-----------------------------------------------------------------|
|-----------------5-5-5-5-5-5-5-5---------------------------------|
|-5-5-5-5-5-5-5-5-----------------5-5-5-5-5-5-5-5-7-7-7-7-7-7-7-7-|

Verse:
|-----------------------------------------------------------------|
|-----------------------------------------------------------------|
|---------------------------------5-5-5-5-5-5-5-5-----------------| x2
|-5-5-5-5-5-5-5-5-5-5-5-5-5-5-5-5-----------------7-7-7-7-7-7-7-7-|

Chorus (1x): 
|-----------------------------------------------------------------|
|-----------------------------------------------------------------|
|-----------------5-5-5-5-5-5-5-5---------------------------------|
|-5-5-5-5-5-5-5-5-----------------5-5-5-5-5-5-5-5-7-7-7-7-7-7-7-7-|

Then play this:
|-----------------------------------------------------------------|
|-----------------------------------------------------------------|
|-----------------------------------------------------------------|
|-10-5--5-5-5-8-3--3-3-3-10-5--5-5-5-8-3--3-3-3--7-7--------------|

-drums-

Chorus: 
|-----------------------------------------------------------------|
|-----------------------------------------------------------------|
|-----------------5-5-5-5-5-5-5-5---------------------------------| x2
|-5-5-5-5-5-5-5-5-----------------5-5-5-5-5-5-5-5-7-7-7-7-7-7-7-7-|

End:
|-----|
|-----|
|-5---|
|---5-|








More Ramones tabs?  frankisfranklyfrank@gmail.com






Like us on Facebook