Rockaway Beach Tab - Ramones






Ramones 
Rockaway Beach
Tabbed by Kris The Great

ALL DOWNSTROKES

Intro x2
    C      D
e----------------------------------------------
b----------------------------------------------
G--5-/--7-7-7-7-7-7-7-7-7-7-7-7-----------
D--5-/--7-7-7-7-7-7-7-7-7-7-7-7-----------
A--3-/--5-5-5-5-5-5-5-5-5-5-5-5-----------
E---------------------------------------------

Verse
     G  /  A     x4      C / D                  D / e 
e----------------------------------------------------------------------------
b----------------------------------------------------------------------------
G-----------------------5-/-7-7-7-7-7----------7-/-9-9-9-9-9-9----------
D--5-/-7-7-7-7-7--------5-/-7-7-7-7-7-x2-------7-/-9-9-9-9-9-9--x2-----
A--5-/-7-7-7-7-7-x4-----3-/-5-5-5-5-5----------5-/-7-7-7-7-7-7----------
E--3-/-5-5-5-5-5------------------------------------------------------------

Chorus
   A                                    D                     A                         e
e---------------------------------------------------------------------------------------------------------------
b---------------------------------------------------------------------------------------------------------------
G---------------------------7-7-7-7-7-7-7-7-7-7-7-7-7-7---------------------------9-9-9-9-9-9-9-9-9-9-9-9-9-9----
D-7-7-7-7-7-7-7-7-7-7-7-----7-7-7-7-7-7-7-7-7-7-7-7-7-7--7-7-7-7-7-7-7-7-7-7-7-7--9-9-9-9-9-9-9-9-9-9-9-9-9-9-x2--
A-7-7-7-7-7-7-7-7-7-7-7-----5-5-5-5-5-5-5-5-5-5-5-5-5-5--7-7-7-7-7-7-7-7-7-7-7-7--7-7-7-7-7-7-7-7-7-7-7-7-7-7-----
E-5-5-5-5-5-5-5-5-5-5-5-----------------------------------5-5-5-5-5-5-5-5-5-5-5-5-------------------------------

Guitar Piece after chorus
     g     D              f     C
e--------------------------------------------------------
b--------------------------------------------------------
G--12--------------------10-10-10-10-10-10-10----------------
D--12-12-12-12-12-12-12--10-10-10-10-10-10-10---
A--10-12-12-12-12-12-12--8--10-10-10-10-10-10---
E-----10-10-10-10-10-10------8--8--8--8--8--8----

Fill
   F#                               A       F#                A           D
e-----------------------------------------------------------------------------------------------
b-----------------------------------------------------------------------------------------------
G---------------------------------------------------------------------7-7-7-7-7-----
D-4-4-4-4-4-4-4-4-----7-7-7-7-7-7-7-7-7-7-4-4-4-4-4-4-4-4-4---7-7-7-7-7-7-7-7-7-----
A-4-4-4-4-4-4-4-4-----7-7-7-7-7-7-7-7-7-7-4-4-4-4-4-4-4-4-4---7-7-7-7-5-5-5-5-5-----
E-2-2-2-2-2-2-2-2-----5-5-5-5-5-5-5-5-5-5-2-2-2-2-2-2-2-2-2---5-5-5-5-----------------

Play Verse

Play Chorus

Play Guitar Piece

then suddenly stop the four snares come in 
 
then play chorus and finish the song and thats it

KILL YR IDOLS






Like us on Facebook