Strenght To Endure Tab - Ramones






RAMONES
Strenght To Endure
Mondo Bizaro


THE BARD.....


Intro
e---------------------------------------------------------|
B---------------------------------------------------------|
G---5-5---------------------------------------------------|
D---5-5---2-2----7-7--5---5-5-5---------------------------|
A---3-3---2-2----7-7--5---5-5-5---------------------------|
E---------0-0----5-5--3---5-5-5---------------------------|

Verse
e---------------------------------------------------------|
B---------------------------------------------------------|
G---5-5---------------------------------------------------|
D---5-5---2-2----7-7--5---5-5-5---------------------------|
A---3-3---2-2----7-7--5---5-5-5---------------------------|
E---------0-0----5-5--3---5-5-5---------------------------|
.......................PM.................................

Chorus
e---------------------------------------------------------|
B---------------------------------------------------------|
G---5---------2---------5---------------------------------|
D---5---------2---------5---------5-----------------------|
A---3---------0---------3---------5-----------------------|
E---------------------------------3-----------------------|

e---------------------------------------------------------|
B---------------------------------------------------------|
G---5---------2-------------------3-----------------------|
D---5---------2---------5---------3-----------------------|
A---3---------0---------5---------1-----------------------|
E-----------------------3---------------------------------|
great song listen to the song for timeing






Like us on Facebook