Surfin Bird Tab - Ramones






Ramones:Surfin bird
Standard tunning
By Mikegoboom

---------------------|
---------------------|
---------------------|For a long time
-7-7-7-7-7-7-7-------|
-7-7-7-7-7-7-7-------|
-5-5-5-5-5-5-5-------|


When he finally say's
"Well dont you know about the bird"
the it switches to

--------------------|
--------------------|
-9-9-9-9--7-7-7-7---|
-9-9-9-9--7-7-7-7---|
-7-7-7-7--5-5-5-5---|
--------------------|

Then back to the first riff and repeat as much as necessary






Like us on Facebook