Suzy Is A Headbanger Bass Tab - Ramones






Ramones: Suzy is a Headbanger

intro and first part of verse

A---------------------------3-3-3-3-3-3-3-3-5-5-5-5-3-3-3-3-----------------
------
E-3-3-3-3-3-3-3-3-3-----------------------------------------------3-3-3-3-3-
3-3-3-

bridge
E-2/3-3-3-2/3-3-3-2/3-3-3-3-3-3

2nd part of verse

A-5-5-5-5-3-3-3-3------------------------
E-------------------------3-3-3-3-3-3-3-3

chorus

A-3-3-3-3-3-3-3-3------------------------3-3-3-3-3-3-3-3-5-5-5-5-3-3-3-3----
----------------------
E-----------------------3-3-3-3-3-3-3-3-------------------------------------
----------3-3-3-3-3-3-3-3-3

outro
A-----------3-3-3-3-5-5-5-5-
E3-3-3-3------------------------ end on D

submitted by Ian Higbee nekroskankliac@hotmail.com









Like us on Facebook