Teenage Labotomy Tab - Ramones






Ramones - Teenage Labotomy
By; Guitarguyx182@aol.com
Intro/ Chorus
E-------------------------------------------
B-------------------------------------------
G-------------------------------------------
D---9-----11--------------------------------
A---7-----9------9-9-9-9-9-9-9--------------
E----------------7-7-7-7-7-7-7--------------

E---------------------------------------------------
B---------------------------------------------------
G---------------------------------------------------
D---9-9-9-----7--------------9-9-9-9----7-----------
A---7-7-7-----5-----7--------7-7-7-7----5-----7-----
E-------------------5-------------------------5-----

E-------------------------------------------
B-------------------------------------------
G-------------------------------------------
D---------------7-7-7-7-7-7-7-7-------------
A---7-----5-----5-5-5-5-5-5-5-5-------------
E---5-----3---------------------------------

Verse
E-------------------------------------------------
B-------------------------------------------------
G-------------------------------------------------
D--------------------------9-9-9-9-9-9-9-9-9-9-9--
A---7-7-7-7-7-7-7-7-7-7-7--7-7-7-7-7-7-7-7-7-7-7--
E---5-5-5-5-5-5-5-5-5-5-5-------------------------






Like us on Facebook