Teenage Lobotomy Tab - Ramones






This IS the whole song, you can figure out the order yourself, I have other tabs to worry about.

corrections please go to mullenman223@yahoo.com



Gtr I (E A D G B E)

 4/4
  Gtr I - Intro
|----------------------------------------------------------------|
|----------------------------------------------------------------|
|----------------------------------------------------------------|
|----------------------------------------------------------------|
|-9-7-6-6-6-6-6-6--6-7S9-9--6-7S9-9--6-7S9-9--6-7S9-9--9-7-6-6-6-|
|-7-5-4-4-4-4-4-4--4-5S7-7--4-5S7-7--4-5S7-7--4-5S7-7--7-5-4-4-4-|

                           Verse/Chorus
|------------------------|-------------------------------------------------|
|------------------------|-------------------------------------------------|
|------------------------|-------------------------------------------------|
|------------------------|---------------9-9-9-9-9-9-9---------------------|
|-6-6-6--9-7-6-6-6-6-6-6-|-7-7-7-7-7-7-7-7-7-7-7-7-7-7-7-7-7-7-7-7-7-7-7-7-|
|-4-4-4--7-5-4-4-4-4-4-4-|-5-5-5-5-5-5-5---------------5-5-5-5-5-5-5-5-5-5-|


|----------------------------------------------------------|
|----------------------------------------------------------|
|----------------------------------------------------------|
|-9-9-9-9-9-9-9-9-----------------------9-9-9-9-9-9-9-9----|
|-7-7-7-7-7-7-7-7--7-7-7-7-7-7-7-7-7-7--7-7-7-7-7-7-7-7----|
|------------------5-5-5-5-5-5-5-5-5-5---------------------|


Tablature Legend
----------------
 h   - hammer-on
 p   - pull-off
 b   - bend
 pb  - pre-bend
 r   - bend release (if no number after the r, then release immediately)
 /  - slide into or out of (from/to "nowhere")
 s   - legato slide
 S   - shift slide
  - natural harmonic
[n]  - artificial harmonic
n(n) - tapped harmonic
 ~   - vibrato
 tr  - trill
 T   - tap
 TP  - trem. picking
 PM  - palm muting
n/  - tremolo bar dip; n = amount to dip
 n  - tremolo bar down
 n/  - tremolo bar up
/n  - tremolo bar inverted dip
 =   - hold bend; also acts as connecting device for hammers/pulls
   - volume swell (louder/softer)
 x   - on rhythm slash represents muted slash
 o   - on rhythm slash represents single note slash






Like us on Facebook