Thats What I Like About You Tab - Ramones






Band: the ramones
song: thats what i like about you
This song is awesome. when i play it is sounds 100% right. hope u guys enjoy it. its 
easy

Intro

E7th    A maj  D maj  A maj
e-----------------2-2----------------------------------|
B---------2-2-2---3-3--2-2-2-2-------------------------|
G--1-1-1--2-2-2---2-2--2-2-2-2-------------------------|
D--2-2-2--2-2-2--------2-2-2-2-------------------------|
A--2-2-2-----------------------------------------------|
E------------------------------------------------------|

 E7th    A maj  D maj  A maj
e-----------------2-2----------------------------------|
B---------2-2-2---3-3--2-2-2-2-------------------------|
G--1-1-1--2-2-2---2-2--2-2-2-2-------------------------|
D--2-2-2--2-2-2--------2-2-2-2-------------------------|
A--2-2-2-----------------------------------------------|
E------------------------------------------------------|






Like us on Facebook