Today Your Love Tomorrow The World (ver2) Tab - Ramones






----------------------------------------------------------------------------
TODAY YOUR LOVE, TOMORROW THE WORLD  The Ramones
----------------------------------------------------------------------------
Tabbed by: Ramones Nutter
Email: zogman1@hotmail.com

Tuning: EADGBe

Note: All of this song (apart from the ending) is one continuous riff  you
are in effect playing the intro three times, and singing over the last two
times. The outro, as well, is the same chord progression as Blitzkrieg Bop
so the song is really simple. 

The xs after the 2nd chorus mean quickly mute the note (either with your
fretting hand or your pick hand) before the vocal comes in, NOT pick
scratching (like in Teen Spirit) where the same symbol is often used.


Intro
e|-----------------------------------------------------------------------|
B|-----------------------------------------------------------------------|
G|--5-5-5-5-5-5-5-5-------------------9-9-9-9-9-9-9-9-9-9-9-9-9-9--------|
D|--5-5-5-5-5-5-5-5--5-5-5-5-5-5-5-5--9-9-9-9-9-9-9-9-9-9-9-9-9-9--------|x4
A|--3-3-3-3-3-3-3-3--5-5-5-5-5-5-5-5--7-7-7-7-7-7-7-7-7-7-7-7-7-7--------|
E|-------------------3-3-3-3-3-3-3-3-------------------------------------|

e|-----------------------------------------------------------------------|
B|-----------------------------------------------------------------------|
G|--7-7-7-7-7-7-7-7--9-9-9-9-9-9-9-9--7-7-7-7-7-7-7-7--9-9-9-9-9-9-9-9---|
D|--7-7-7-7-7-7-7-7--9-9-9-9-9-9-9-9--7-7-7-7-7-7-7-7--9-9-9-9-9-9-9-9---|x2
A|--5-5-5-5-5-5-5-5--7-7-7-7-7-7-7-7--5-5-5-5-5-5-5-5--7-7-7-7-7-7-7-7---|
E|-----------------------------------------------------------------------|

Verse

  Well Im a shock trooper in a stupor, yes I am,     
e|------------------------------------------------------------------------| 
B|------------------------------------------------------------------------| 
G|--5-5-5-5-5-5-5-5-------------------9-9-9-9-9-9-9-9-9-9-9-9-9-9---------|
D|--5-5-5-5-5-5-5-5--5-5-5-5-5-5-5-5--9-9-9-9-9-9-9-9-9-9-9-9-9-9---------|
A|--3-3-3-3-3-3-3-3--5-5-5-5-5-5-5-5--7-7-7-7-7-7-7-7-7-7-7-7-7-7---------|
E|-------------------3-3-3-3-3-3-3-3--------------------------------------|

   Im a Nazi schazi and I fight for the fatherland!
e|------------------------------------------------------------------------|
B|------------------------------------------------------------------------|
G|--5-5-5-5-5-5-5-5-------------------9-9-9-9-9-9-9-9-9-9-9-9-9-9---------|
D|--5-5-5-5-5-5-5-5--5-5-5-5-5-5-5-5--9-9-9-9-9-9-9-9-9-9-9-9-9-9---------|
A|--3-3-3-3-3-3-3-3--5-5-5-5-5-5-5-5--7-7-7-7-7-7-7-7-7-7-7-7-7-7---------|
E|-------------------3-3-3-3-3-3-3-3--------------------------------------|

[Repeat]

Chorus

   Little  german   boy,             being  pushed    around,
e|-------------------------------------------------------------------------|
B|-------------------------------------------------------------------------|
G|--7-7-7-7-7-7-7-7--9-9-9-9-9-9-9-9--7-7-7-7-7-7-7-7--9-9-9-9-9-9-9-9-----|
D|--7-7-7-7-7-7-7-7--9-9-9-9-9-9-9-9--7-7-7-7-7-7-7-7--9-9-9-9-9-9-9-9-----|
A|--5-5-5-5-5-5-5-5--7-7-7-7-7-7-7-7--5-5-5-5-5-5-5-5--7-7-7-7-7-7-7-7-----|
E|-------------------------------------------------------------------------|

   Little  german   boy,             in  a   german   town!
e|-------------------------------------------------------------------------|
B|-------------------------------------------------------------------------|
G|--7-7-7-7-7-7-7-7--9-9-9-9-9-9-9-9--7-7-7-7-7-7-7-7--9-9-9-9-9-9-9-9-----|
D|--7-7-7-7-7-7-7-7--9-9-9-9-9-9-9-9--7-7-7-7-7-7-7-7--9-9-9-9-9-9-9-9-----|
A|--5-5-5-5-5-5-5-5--7-7-7-7-7-7-7-7--5-5-5-5-5-5-5-5--7-7-7-7-7-7-7-7-----|
E|-------------------------------------------------------------------------|

[Repeat verse]

2nd Chorus
   
Little  german   boy,             being  pushed    around,
e|-------------------------------------------------------------------------|
B|-------------------------------------------------------------------------|
G|--7-7-7-7-7-7-7-7--9-9-9-9-9-9-9-9--7-7-7-7-7-7-7-7--9-9-9-9-9-9-9-9-----|
D|--7-7-7-7-7-7-7-7--9-9-9-9-9-9-9-9--7-7-7-7-7-7-7-7--9-9-9-9-9-9-9-9-----|
A|--5-5-5-5-5-5-5-5--7-7-7-7-7-7-7-7--5-5-5-5-5-5-5-5--7-7-7-7-7-7-7-7-----|
E|-------------------------------------------------------------------------|

   Little  german   boy,             in  a german: EINS, ZWEI, DREI, VIER!
e|-------------------------------------------------------------------------|
B|-------------------------------------------------------------------------|
G|--7-7-7-7-7-7-7-7--9-9-9-9-9-9-9-9--7-7-7-7-7-7-7-7x---------------------|
D|--7-7-7-7-7-7-7-7--9-9-9-9-9-9-9-9--7-7-7-7-7-7-7-7x---------------------|
A|--5-5-5-5-5-5-5-5--7-7-7-7-7-7-7-7--5-5-5-5-5-5-5-5x---------------------|
E|-------------------------------------------------------------------------|

Outro
   Today your love, tomorrow the world!
e|----------------------------------------|
B|----------------------------------------|
G|--------------------7-7-7-7---9-9-9-9---|
D|--7-7-7-7-7-7-7-7---7-7-7-7---9-9-9-9---| x5
A|--7-7-7-7-7-7-7-7---5-5-5-5---7-7-7-7---|
E|--5-5-5-5-5-5-5-5-----------------------|

  (no vocals)
e|-------------------------------------------------------------------------|
B|-------------------------------------------------------------------------|
G|--------------------7-7-7-7---9-9-9-9~-----------------------------------|
D|--7-7-7-7-7-7-7-7---7-7-7-7---9-9-9-9~-(let final note ring to feedback)-|
A|--7-7-7-7-7-7-7-7---5-5-5-5---7-7-7-7~-----------------------------------|
E|--5-5-5-5-5-5-5-5--------------------------------------------------------|
 
| /  slide up
|   slide down
| h  hammer-on
| p  pull-off
| ~  vibrato
| +  harmonic
| x  Mute note

Any questions corrections or whatever, email me  address at the top.

Enjoy!
============================================================================






Like us on Facebook