Today Your Love Tomorrow The World Tab - Ramones






  

Tablatura de NICO M. (nicokbbl@hotmail.com)

Artista: Ramones
Cancion: Today Your Love, Tomorrow The World 
Album: Ramones (1976) 


1|--------------------------------------------|
2|--------------------------------------------|
3|-------5-5-5-5-5----------------------------|x4
4|-------5-5-5-5-5-5-5-5-5-5--2-2-2-2-2-2-2-2-|
5|-------3-3-3-3-3-5-5-5-5-5--2-2-2-2-2-2-2-2-|
6|-----------------3-3-3-3-3--0-0-0-0-0-0-0-0-|
 


1|---------------------------------------------|
2|---------------------------------------------|
3|------7-7-7-7-7--9-9--5-5--------------------|x3
4|------7-7-7-7-7--9-9--5-5--------------------|
5|------5-5-5-5-5--7-7--3-3--------------------|
6|---------------------------------------------|



1|--------------------------------------------|
2|--------------------------------------------|
3|-------5-5-5-5-5----------------------------|x4
4|-------5-5-5-5-5-5-5-5-5-5--2-2-2-2-2-2-2-2-|
5|-------3-3-3-3-3-5-5-5-5-5--2-2-2-2-2-2-2-2-|
6|-----------------3-3-3-3-3--0-0-0-0-0-0-0-0-|


1|---------------------------------------------|
2|---------------------------------------------|
3|------7-7-7-7-7--9-9--5-5--------------------|x3
4|------7-7-7-7-7--9-9--5-5--------------------|
5|------5-5-5-5-5--7-7--3-3--------------------|
6|---------------------------------------------|



1|--------------------------------------------|
2|--------------------------------------------|
3|-------5-5-5-5-5----------------------------|x4
4|-------5-5-5-5-5-5-5-5-5-5--2-2-2-2-2-2-2-2-|
5|-------3-3-3-3-3-5-5-5-5-5--2-2-2-2-2-2-2-2-|
6|-----------------3-3-3-3-3--0-0-0-0-0-0-0-0-|



1|---------------------------------------------|
2|---------------------------------------------|
3|------7-7-7-7-7--9-9--5-5--------------------|x3
4|------7-7-7-7-7--9-9--5-5--------------------|
5|------5-5-5-5-5--7-7--3-3--------------------|
6|---------------------------------------------|



final
1|----------------------------------------|
2|----------------------------------------|
3|-------------------------3-3-3----------|
4|----3-3-3-3-3-3-3-3-3-3--1-1-1--3-------|
5|----1-1-1-1-1-1-1-1-1-1--1-1-1--1-------|
6|----1-1-1-1-1-1-1-1-1-1---------1-------|




Letra: (lyric) 


   I'm a shock trooper in a stupor
              Yes I am.
          I'm a Nazi schatze
    Y'know I fight for fatherland
           Little German boy
          Being pushed around
           Little German boy
           In a German town
   Today your love, tomorrow the world






Like us on Facebook