Wart Hog Bass Tab - Ramones






Wart Hog, Ramones
Intro/Chorus:
G:------------------|
D:------------------|                     
A:--------------3/1-|
G:--1-1-1-1-1-1-----|

Verse:
G:-----------------|
D:-----------------|                     
A:--6--------------|
E:----4/6-6-6-6----|

Bridge 1:
G:------------------|
D:------------------|
A:--3-3-6-68--8-8-8-|              
E:------------------|

Bridge 2:
G:------------------|
D:------------------|                  
A:--6-6-------------|
E:------7-74--4-4-4-|

Outro:
G:------------------|------------------------|
D:------------------|------------------------|
A:--1-1-4-46--6-6-6-|--6-6- 9- 911--11-11-11-|
E:------------------|------------------------|






Like us on Facebook