We Want The Airwaves Tab - Ramones






Ramones
We want the airwaves

Con flanger
e--------------------------------------------------------------------|
b--------------------------------------------------------------------|
g--------------------------------------------------------------------|
d-7-7-7-9-9-9-10-10-10-12-12-12-10-10-9-9-10-10-10-9-9-9-7-7-7-5-5-5-|
a-x-x-x-x-x-x--x--x--x--x--x--x--x--x-x-x--x--x--x-x-x-x-x-x-x-x-x-x-|
e-5-5-5-7-7-7--8--8--8-10-10-10--8--8-7-7--8--8--8-7-7-7-5-5-5-3-3-3-|

e-------------------------------------|
b-------------------------------------|
g-------------------------------------|
d-7-7-9-9-5--3-3-3-5--7--3-3-3-2------|
a-x-x-x-x-3--3-3-3-5--7--3-3-3-2------|
e-5-5-7-7-3--1-1-1-3--5--1-1-1-0------|

e--------------------------------------------------------------------|
b--------------------------------------------------------------------|
g--------------------------------------------------------------------|
d-7-7-7-9-9-9-10-10-10-12-12-12-10-10-9-9-10-10-10-9-9-9-7-7-7-5-5-5-|
a-x-x-x-x-x-x--x--x--x--x--x--x--x--x-x-x--x--x--x-x-x-x-x-x-x-x-x-x-|
e-5-5-5-7-7-7--8--8--8-10-10-10--8--8-7-7--8--8--8-7-7-7-5-5-5-3-3-3-|

e----------------------------------------------------|
b----------------------------------------------------|
g---------------------9----------------------------2-|
d-7-7-9-9-5--3-3-3-5--9------------2-3-2-0-2-0-----2-|
a-x-x-x-x-3--3-3-3-5--7--5/7--5/7--------------3-2-0-|
e-5-5-7-7-3--1-1-1-3---------------------------------|

A5
9 to 5 and 5 to 9
F5     G5
ain't gonna take it
it's our time
we want the world
and we want it know
we're gonna take it, anyhow

We want the airwaves
We want the airwaves
We want the airwaves, baby
A5
if rock is gonna stay alive

A5
Oh yea-well all right
F5
let's rock-tonite
G5
all night


e--------------------------------|
b--------------8-----------------|
g--------------7br(9)-7-9~-------|
d----------7---------------------|
a-----3----7---------------------|
e-1-3---3--5---------------------|


A5
Oh yea-well all right
F5
let's rock-tonite
G5
all night

e--------------------------------|
b--------------------------------|
g--------------------------------|
d----------------3-3-3-2---------|
a-----3---7-7-7--3-3-3-2---------|
e-1-3---3--------1-1-1-0---------|

A5
Where's your guts
F5
and will to survive
G5
and don't you wanna
Keep rock & roll music alive
Mr. Programmer
I got my hammer
and I'm gonna
smash my
smash my
radio

We want the airwaves
We want the airwaves
We want the airwaves, baby
A5
If rock is gonna stay alive

A5
Oh yea-well all right
F5
let's rock-tonite
G5
all night


e--------------------------------|
b--------------8-----------------|
g--------------7br(9)-7-9~-------|
d----------7---------------------|
a-----3----7---------------------|
e-1-3---3--5---------------------|


A5
Oh yea-well all right
F5
let's rock-tonite
G5
all night

e------------------------|
b------------------------|
g------------------------|
d------------------------|
a-----3---7-7------------|
e-1-3---3----------------|

Con flanger
e--------------------------------------------------------------------|
b--------------------------------------------------------------------|
g--------------------------------------------------------------------|
d-7-7-7-9-9-9-10-10-10-12-12-12-10-10-9-9-10-10-10-9-9-9-7-7-7-5-5-5-|
a-x-x-x-x-x-x--x--x--x--x--x--x--x--x-x-x--x--x--x-x-x-x-x-x-x-x-x-x-|
e-5-5-5-7-7-7--8--8--8-10-10-10--8--8-7-7--8--8--8-7-7-7-5-5-5-3-3-3-|

e-------------------------------------|
b------------------------8------------|
g------------------------7br(9)-5-7/8-|
d-7-7-9-9-5--3-3-3-5--7---------------|
a-x-x-x-x-3--3-3-3-5--7---------------|
e-5-5-7-7-3--1-1-1-3--5---------------|

e--------------------------------------------------------------------|
b--------------------------------------------------------------------|
g--------------------------------------------------------------------|
d-7-7-7-9-9-9-10-10-10-12-12-12-10-10-9-9-10-10-10-9-9-9-7-7-7-5-5-5-|
a-x-x-x-x-x-x--x--x--x--x--x--x--x--x-x-x--x--x--x-x-x-x-x-x-x-x-x-x-|
e-5-5-5-7-7-7--8--8--8-10-10-10--8--8-7-7--8--8--8-7-7-7-5-5-5-3-3-3-|


e---------------------------|
b---------------------------|
g---------------------------|
d-7-7-9-9-5--3-3-3-5--------|
a-x-x-x-x-3--3-3-3-5--7--7--|
e-5-5-7-7-3--1-1-1-3--------|

We want the airwaves...
e---------------------------|
b---------------------------|
g---------------------------|
d-77777777------------------| x4
a-77777777------3-----------|
e-55555555--1-3---3---------|
Pm........

A5

Aca esta la cancion enterita...
Mail:meconvertienunmarciano@hotmail.com






Like us on Facebook