Why Is It Always This Way Solo Tab - Ramones






The Ramones
Why is is always this way?
Tabbed by: Robin Medin
E-Mail: PaNe_55@hotmail.com

This is my very first tab, and I'm pretty sure this is right. I figured it out on an
acoustic guitar, but I think it should sound ok on an electic guitar too.

PART 1

E |-------------------------------------------------------|
B |-------------------------------------------------------|
G |-------------------------------------------------------|
D |-------------------------------------------------------|
A |-8/99-8/99--8/99-8/99--7777777-7777777-----------------|
E |-6/77-6/77--6/77-6/77--5555555-5555555-----------------|

PART 2

E |-------------------------------------------------------|
B |-------------------------------------------------------|
G |-------------------------------------------------------|
D |-------------------------------------------------------|
A |-8/99-8/99--8/99-8/99--7777777-9999999-----------------|
E |-6/77-6/77--6/77-6/77--5555555-7777777-----------------|

Listen to the song for the strumming.






Like us on Facebook