Youre Gonna Kill That Girl Bass Tab - Ramones






Ramones: You're Gonna Kill that girl

intro and bridge

A------------------------------------5-------------
E-5-----------5-2--------------2------------0---

chorus


A---------------------------------------------------------------------------
--------------------5-5-5-5-5-5-5-5-5-5-5-5-5-5-
E-5-5-5-5-5-5-5-5-5-5-5-5-5-5-5-5-5-5-2-2-2-2-2-2-2-2-2-2-2-2-2-2-2-2-------
--------------------------------

A-7-7-7-7-7-7-7-7-7-7-7-7-7-7-7-
E-------------------------------------------

verse

A-5-5-5-5-5-5-5-5-5-5-----------------------------------5-5-5-5-5-5-5-5-5-5-
7-7-7-7-7-7-7-7-7-
E------------------------------5-5-5-5-5-5-5-5-5-5-5-5----------------------
--------------------------------

submitted by Ian Higbee nekroskankliac@hotmail.com







Like us on Facebook