Youre Gonna Kill That Girl Tab - Ramones






You're Gonna Kill that Girl by the Ramones

Tabbed by Lord Bendah!
Tuning - standard

e---------------------------------------------|
B-2---------------------------------2-0-------|
G-2---------------------------------2-0-------|
D-2---------------------------------2-0-------|
A---------------------------------------------|
E---------------------------------------------|
  I saw her walking down the street he jumped down,

e------------------------2--------------------------------------------|
B------------------------2--------------------------------------------|
G--------------------------3--------------------------------------1---|
D----------------------------4--------------------------------------2-|
A----------------------------4--------------------------------------2-|
E------------------------2--------------------------------------------|
  he knocked her off her feet and then I knew it was the end of her

e----------------------------------------------------|
B-2>>------------------------------------------------|
G-2>>------------------------------------------------|
D-2>>-------------------------4>>--------------------|
A-----------------------------4>>--------------------|
E---------------------------2>>----------------------|
  He's gonna kill that girl He's gonna kill that girl

e----------------------------------|
B-3>>------------------------------|
G-2>>------------------------------|
D----------------------2>>---------|
A----------------------2>>---------|
E----------------------------------|
  He's gonna kill that girl tonight

e----------------------------------------------------------------|
B-3>>--------------------------------------2>>-------------------|
G-2>>--------------------------------------2>>-------------------|
D----------------------------------------------------------------|
A----------------------------------------------------------------|
E----------------------------------------------------------------|
  When I saw her walking down the street my heart stood still and skipped

e--------------------------------------------------------------------|
B-------3>>----------------------------------------------------------|
G-------2>>----------------------------------------------------------|
D--------------------------------------------2>>---------------------|
A--------------------------------------------2>>---------------------|
E--------------------------------------------------------------------|
  A beat then he knocked her on the floor but he wanted just a little bit more






Like us on Facebook