House Of Jealous Lovers Bass Tab - Rapture






Part 1

g -----1----------------------------------------
d -0h33-1-3-------------------------------------
a ----------------------------------------------
e ----------------------------------------------

Part 2

g -3-3-3-1-2--3-3-3-1-2--3-3-3-1-2--3-1-0-------
d ------3----------3----------3----------4------
a ----------------------------------------------
e ---------------------------------------------- 

Part 3

g --1~8-----------------------------------------
d -3--------------------------------------------
a ----------------------------------------------
e ----------------------------------------------

listen to song for order and timing.
any comments: jackslackofpurpose@hotmail.com