Mujer Amante (ver2) Tab - RATA BLANCA






Intro
             G                  Em                    Bm
e||--------------------|-------------------|---------------------|
B||--------------------|-------------------|---------------------|
G||--------------------|-------------------|---------------------|
D||--12----------------|--9----------------|---------------------|
A||--10----------------|--7----------------|---------------------|
E||--------------------|-------------------|--7------10----------|


           G                    D                      D
----------------------|--------------------|------------------------||
----------------------|--------------------|------------------------||
----------------------|--------------------|------------------------||
----------------------|--------------------|--------7--7/-9----7----||
--10----------9---7---|--9--------------2--|--7--9--5--5/-7----5----||
----------------------|-----------------0--|--5--7------------------||



 Bm                                     A
Siento el calor de toda tu piel en mi cuerpo otra vez
    Bm                 G        D         A
Estrella fugaz que enciende mi sed misteriosa mujer
         G                    Bm
Por tu amor sensual cunto me das
              A    Em   D
Haz que mi sueo sea una verdad
      G                        Bm
Dame tu alma hoy, hacia el ritual
            A     Em     F#
Llevame al mundo donde pueda soar

Bm   D                   A             Bm
Uh, debo saber si en verdad, en algn lado estas
Bm           D      A            Bm
Voy a buscar una seal, una cancin
Bm   D                   A             Bm
Uh, debo saber si en verdad, en algn lado estas
Bm             D        A           Bm  A  G  Em
Solo el amor que tu me das me ayudar


Bm                                  A
Al amanecer tu imagen se va, misteriosa mujer
   Bm             G       D       A
Dejaste en m, lujuria total, hermosa, sensual
     G                      Bm
Corazn sin Dios dame un lugar
        A     Em    D
En ese mundo tibio casi irreal
     G              Bm
Deber buscar una seal
      A     Em   F#
En aquel camino por el que vas.


Bm   D                   A             Bm
Uh, debo saber si en verdad, en algn lado estas
Bm           D      A            Bm
Voy a buscar una seal, una cancin
Bm   D                   A             Bm
Uh, debo saber si en verdad, en algn lado estas
Bm             D        A           Bm  A  G  Em
Solo el amor que tu me das me ayudar



Solo 1

                 G
e||------------------------------|
B||--10b---10b-10b-10b---10------|
G||--------------------------12--|
D||------------------------------|
A||------------------------------|
E||------------------------------|


             Em                              Bm
--------------------12b-----|----12---------------------------|
----------------------------|--------15--14h15-14-12~-----14--|
--11h12-11-9~---------------|---------------------------------|
----------------------------|---------------------------------|
----------------------------|---------------------------------|
----------------------------|---------------------------------|


                Bm                                  A
---------------------14---15---14--|--12-----------------12------------|
--15---14h15-14--12----------------|-------15---14h15-14------15---14--|
-----------------------------------|-----------------------------------|
-----------------------------------|-----------------------------------|
-----------------------------------|-----------------------------------|
-----------------------------------|-----------------------------------|


                Em                              D
----------------------------------|-------------------------|
--12h14-12--10--------------------|-------------------------|
-----------------12--11---9---12--|--11b-----11-9-11--------|
----------------------------------|-------------------------|
----------------------------------|-------------------------|
----------------------------------|-------------------------|


              D                              G
------------12--14---15---17--|--17b--------------17b--17--|
--14---15---------------------|----------15--15------------|
------------------------------|----------------------------|
------------------------------|----------------------------|
------------------------------|----------------------------|
------------------------------|----------------------------|


             G                               Bm
--17b--------------17b--19--|--21---19---21--21b--21---19--|
----------15--15------------|------------------------------|
----------------------------|------------------------------|
----------------------------|------------------------------|
----------------------------|------------------------------|
----------------------------|------------------------------|


            Bm                         A
--14~-------14---15---17--|--15b---15--14------------|
--------------------------|----------------17~-------|
--------------------------|--------------------------|
--------------------------|--------------------------|
--------------------------|--------------------------|
--------------------------|--------------------------|


                Em                             F#
--15---14-------15/19--18---19--|--18---19---18--20b---20b---|
------------17------------------|----------------------------|
--------------------------------|----------------------------|
--------------------------------|----------------------------|
--------------------------------|----------------------------|
--------------------------------|----------------------------|


            F#                G  (Tu presencia..)
--20b---20b---20b---20b---|--19~---------------||
--------------------------|--------------------||
--------------------------|--------------------||
--------------------------|--------------------||
--------------------------|--------------------||
--------------------------|--------------------||



G                                  Bm
Tu presencia marc en mi vida el amor, lo se
A                                   Bm
Es difcil pensar, el vivir ya sin vos.
     G                      Bm
Corazn sin Dios dame un lugar
        A     Em    F#
En ese mundo tibio casi irreal


Bm   D                   A             Bm
Uh, debo saber si en verdad, en algn lado estas
Bm           D      A            Bm
Voy a buscar una seal, una cancin
Bm   D                   A             Bm
Uh, debo saber si en verdad, en algn lado estas
Bm             D        A           Bm
Solo el amor que tu me das me ayudar



Solo 2

            Bm                        Bm
e||----------------------|--------------------------|
B||----------------------|--------------------------|
G||----------11----14----|--14b---14b---14b---14r---|
D||----------------------|--------------------------|
A||----------------------|--------------------------|
E||----------------------|--------------------------|


             A                            A
----------------------------|---------------------------|
----------------------------|------------------12--14---|
------12--11--14~-----12p11-|--9~-------12/14-----------|
----------------------------|---------------------------|
----------------------------|---------------------------|
----------------------------|---------------------------|


            Bm                        Bm
--9---------------------|-----------------------------|
--12b---12--12~---------|--12------------7----12--15--|
------------------------|--14b---14--11--9b-----------|
------------------------|-----------------------------|
------------------------|-----------------------------|
------------------------|-----------------------------|


               A
------------------------------|
--17b---17--15--17b---17b-17b-|
------------------------------|
------------------------------|
------------------------------|
------------------------------|


                                      A
-----------------------------------------------
--15h17p15h17p14h15p14h15p12h14p12h14p10h12p10h
-----------------------------------------------
-----------------------------------------------
-----------------------------------------------
-----------------------------------------------



---------------------------------
12p8h10p8h10p7h8p7h8p5h7p5h7p3h5p
---------------------------------
---------------------------------
---------------------------------
---------------------------------



                  Bm                                 Bm
----------------------------------------|-------------------------|
----------------------------------------|-------------------------|
--6p4p2p1h2p1h2p1h2---------------------|--14~--------------------|
--------------------4p2p1h2p1-----------|--14~-12~-11--9~---------|
------------------------------2-4--2~---|--------------9~---------|
----------------------------------------|-------------------------|


           A                                    A
-------------------------|--------------------------------------------|
--15~--------------------|--------------------------------------------|
--14~-12~-11--9----------|--6h7p6-------------6---------------6-7-6---|
--------------7----------|--------9-7-6h7p6-9---9-7-6---6-7-9-------9-|
-------------------------|----------------------------9---------------|
-------------------------|--------------------------------------------|


                            Bm
-------------------------------------------------------------|
-------------------------------------8-10-12---------8-10-12-|
--6-------------------------6-7-9-11---------11-9-11---------|
----9-7-6-------------6-7-9----------------------------------|
----------9-7-6---7-9----------------------------------------|
----------------9--------------------------------------------|


                  Bm                               A
--------12~-------------------------|--12----------------------|
--14-15-------15-14h15p14-12~-------|--15b---15--14--15~-------|
------------------------------------|--------------------------|
------------------------------------|--------------------------|
------------------------------------|--------------------------|
------------------------------------|--------------------------|


              A
--14--17----------------------|
--17b-----17b---17b---17--15--|
------------------------------|
------------------------------|
------------------------------|
------------------------------|


                        Bm
---------------------12-14-15p14p12----------12-12b|
--14h15p14-12-----------------------15-14-15-------|
---------------------------------------------------|
---------------------------------------------------|
---------------------------------------------------|
---------------------------------------------------|


                                  Bm
--15p14p12----------12-14--14p12-------------------12
-----------15-14-15--------------15p14p12----12-15b--
------------------------------------------14---------
-----------------------------------------------------
-----------------------------------------------------
-----------------------------------------------------


----------12---------------
-15-14-15----15-14-12-14-15
---------------------------
---------------------------
---------------------------
---------------------------


                                   A
--15p14-12h14p12h14-10h12p10h12-------------
--------------------------------14h15p14h15-
--------------------------------------------
--------------------------------------------
--------------------------------------------
--------------------------------------------


------------------------17b---17-|
12h14p12h14----------------------|
------------14h16p14h16----------|
---------------------------------|
---------------------------------|
---------------------------------|


                     A
---------12-14-12h14p12----------12-----------|
------15----------------15-14h15----15p14-12~-|
----------------------------------------------|
----------------------------------------------|
----------------------------------------------|
----------------------------------------------|


                                       Bm
-------12h14p12----------15-14-12-----12-------
----15----------15-14-12----------15b----15-14-
-----------------------------------------------
-----------------------------------------------
-----------------------------------------------
-----------------------------------------------



---------------------------|
12-15-14-12----------12-14-|
------------14-12-14-------|
---------------------------|
---------------------------|
---------------------------|


                                        Bm
------12-14h15p14-12-------12-------12-14-15-12-
--15b----------------15-14----14-15-------------
------------------------------------------------
------------------------------------------------
------------------------------------------------
------------------------------------------------



---------------12-12-14-12-14-12
15-14-12-15-15b-----------------
--------------------------------
--------------------------------
--------------------------------
--------------------------------


            A
-----------14-14h15p14-12----12-14-14h15p14-12----
--15-14-15----------------15-------------------15-
--------------------------------------------------
--------------------------------------------------
--------------------------------------------------
--------------------------------------------------



12-14-14h15p14-12----12-14~-|
------------------15--------|
----------------------------|
----------------------------|
----------------------------|
----------------------------|


           A                        Bm
------12----------------|------------------------||
----------------15p-14h-|--15p-14--12~-----------||
------------------------|------------------------||
------------------------|------------------------||
------------------------|------------------------||
------------------------|------------------------||

ĂŽnscrie-te la newsletter


Like us on Facebook