Turn It Again (ver2) Bass Tab - Red Hot Chili Peppers






Intro and Verse
                                                                x7                       
                                   1st 3 times

|------12--12----12--12--------10h12--|-----12--12----------------------------------|
|-------------------------10h12--------|-----------------12--12--10h12-10h12--------|
|---10--------10-----------------------|--10---------10-----------------------------|
|--------------------------------------|--------------------------------------------|


4th tme

|------12--12--------------------------|
|-----------------12--12--12--12-------|
|---10--------10-----------------------|
|--------------------------------------|

chorus

|------------------------------------------------------------------------------------|
|-----------------------------------------------------------------------3--5-3-------|
|-------------------------------------------0-1-2-33333333-x2-3-333-5--5-----53------|
|--33333333333333333303-1111111111111111--------------------------------------5------|


|---------------------------------------|
|---------------------------3-----53----|
|---------------3-5-555-3h5--3h5---5----|
|--3333333-3-5--------------------------|

|-------------------------------------------------------------------|
|-------------------------------------------------------------------|
|-------------x/5----5-03-01-----------------x3-----------x0-1-2----|
|--3333333333----33---------3-2-1111111111----111111111-------------|

|----------------------------------------------------------------|
|------------------------x3--53----------------------------------|
|--333-3-0-1/2-333--3/5-------53---------------------------------|
|--------------------------------333333-6-8-10-10-10-10-10-10----|


Verse - the same

2nd chorus- haven't figured out yet

Interlude

|----------------------------------------------------------------------------|
|------------|-------------|----------|----------|--10----10--|--10----10----|
|--10----10--|--10----10--|--8----8--|--8----8--|------------|---------------|
|----------------------------------------------------------------------------|

Solo havent figured out yet sorry

any help would very useful!!!

email mentalmonkey_dump@hotmail.com






Like us on Facebook