Turn It Again (ver3) Bass Tab - Red Hot Chili Peppers






Artist: Red Hot Chili Peppers

Song: Turn It Again


This is the whole song with variations

 Intro and Verse1                                               x7                       
                         1st 3 times

|------12--12----12--12------------------|-----12--12------------------------------|
|-------------------------------10h12----|----------------12--12--10h12--10h12-----|
|--10---------10---------10h12-----------|--10--------10---------------------------|
|-----------------------------------------|----------------------------------------|

                                               4th time
|-----12--12-----------------------|
|----------------12--12--12--12----|
|--10--------10--------------------|
|----------------------------------|

chorus 1

|-------------------------------------------------------------------------------|
|-----------------------------------------------------------------3--5-3--------|
|------------------------------------------0-1-2-3333333-x2333-5--5-----53------|
|--33333333333333333303-11111111111111-----------------------------------6------|


|---------------------------------------|
|---------------------------3-----53----|
|---------------3-5-555-3h5--3h5---5----|
|--3333333-3-5--------------------------|

|----------------------------------------------------------------------|
|----------------------------------------------------------------------|
|-------------x/5----5-03-01-----------------x3-----------x0-1-2-------|
|--3333333333----33---------3-2-1111111111----111111111----------------|

|--------------------------------------------------------------------|
|------------------------x3--53--------------------------------------|
|--333-3-0-1/2-333--3/5-------53-------------------------------------|
|--------------------------------333333-6-8-10-10-10-10-10-10--------|

Verse 2                                                x7                                
                             1st time

|-----12--12----12--12-------10h12---|----12--12-----------------------------|
|-------------------------------------|---------------12--12--10h12-10h12----|
|--10--------10---------10h12--------|--10-------10--------------------------|
|-------------------------------------|--------------------------------------|

                                               2nd time
|-----12--12-----------------------|
|----------------12--12--12--12----|
|--10--------10--------------------|
|----------------------------------|

Chorus 2

|-------------------------------------------------------|
|-------------------------------------------------------|
|-----------------------/5----------/5---0-1-2----012---|
|--3333333333333333333---11111111----1-------x1---------|

|----------------------------------------------------------------------|
|------------1-----------3--53---------------------------3-----53------|
|--3333-x1-3---3-3--5-5---5--5-3--------------3-555-3h5---3h5---5------|
|---------------------------------63-33333 3-6 ------------------------|

|-----------------------------------------------------------------------------------|
|------------------------5--3----------------------------3/5-3-1---------3/5-3-1----|
|----------5-3---------------5-3----------1-2-3------------------33333-3------------|
|--33333-3-----6-33333-3-------6-11111-1-------11111-1------------------------------|

|--------------------------------------------------------------|
|----------3/5-3-----------------------------------------------|
|--33333-3-------6---------------------------------------------|
|-------------------3333333-6-8-10-10-10-1010101010101010------|

Interlude

|----------------------------------------------------------------------------|
|----------------------------------------------------------------------------|
|--10--10----10--10----8--8----8--8----------------------8--8----10--10------|
|----------------------------------------8--8----8--8------------------------|

Verse 3                                                       x7                         
                         1st time

|-----12--12-----12--12---------------|-----12--12-------------------10h12------|
|-------------------------------10h12-|----------------12--12--10h12------------|
|--10---------10---------10h12--------|--10--------10---------------------------|
|--------------------------------------|----------------------------------------|

                                           2nd time

|-----12--12--------------------------|
|-------------1221212121212121122-----|
|--10---------------------------------|
|-------------------------------------|


Chorus 3

|----------------------------------------------------------------------------|
|----------------------------------------------------------------------------|
|--------------------1-xx1----------1-xx1-------x0-1-2-33-01230123012333-----|
|--33333333333333-3-------1111111--------11111-------------------------------|

|-----------------------------------------------------------------------------|
|-----3-5-3---------------------------x3x5-3-------x5-x3---------x5-x3--------|
|--/5--5----53--------------3-55-3h5---------5-----------53------------53-----|
|-------------6--333333-3-6--------------------333---------6-333---------6----|

|-------------------------------------------------------------------|
|------x/5-x3---------x/5-x3-----------------------------3-5--------|
|--333--------35--333--------53---------------3-555-3/5--5---53-----|
|---------------6---------------6-3333333-3-6-------------------6---|

Solo

|-----------------------------------------------------------------------------|
|------------------------------------------3---5-3----------------------------|
|------------------1-x3-31-------x1-2-3-5---53---5-x3-1----333--x1-35-333-----|
|--33333333333333--------3-1111------------------------31---------------------|

|---3----------------------7--7--7--7--7-|
|--5--53---------------------------------|
|--------5-3------------3-5--5--5--5--5--|
|------------33333-3-6-------------------|

|----------------------------------------------------------------------------|
|----------------------------------------------------------------------------|
|------x5-x3-53-----x5-x3---3-----x5-x3-1-3-----x5-x3-1-3-333-33-x1-3-1------|
|--333---------6-333------6---111-----------111------------------------------|

|------------------------------------------5--------------------------------------|
|------------------------------------3--5----53-----------------------------------|
|--333-33-x1-3-1--------------3-5555--5--5----5-----------------------------------|
|-----------------333-33-33-6---------------------333-33-x6-531-333-33-x6-531-----|

|---------------------------------------------------------------------------------|
|-------------------------------------------------------5--3----------------------|
|------------------------------333-33-x3-5-3-5-333-33-3--3--53--------------3-----|
|--111-11-x6-531-111-11-x656----------------------------------6-333-33-3-6--------|

|---7--7--6--5--------------------------------------------------------------|
|---------------------------------------------------------------------------|
|--5--5--4--3---------------------------------------------------------------|
|--------------333-33-x6-531-333-33-x6-531-111-11-x6-531-111-11-x6-531------|

|------------------------------------------------------53-----|
|-------------------------------------------------3-53---3----|
|--333-33-13-31---333-33-13-31--------------3--5-5--5---------|
|---------------3---------------3-333-33-3-6------------------|

Im not sure here but i think alot of overdrive is used.

|-------------------------------------|---------------------------|
|-------------------------------------|---------------------------|
|-------------3~~~~-------------------|---------------------------|
|--3~~~-1~~~--------333333333333333-|-333-366363-333-366363-------|


                                                                                 x2
|-------------------------------------------------|--------|
|-------------------------------------------------|--------|
|--------------------------333-355353-333-355353-|---------|
|--111-133131-111-133131-------------------------|--3------|

have fun wit this, i tabbed it out and i can hardly remember any of it : )






Like us on Facebook