Turn It Again Bass Tab - Red Hot Chili Peppers






Main Riff

g------12--12----------12 12------------------10h12--------------------------|
d---------------------------------------10h12--------------------------------|
a--10--------------10--------------------------------------------------------|
e----------------------------------------------------------------------------|

Bass Fill

g------12--12----------------------------------------------------------------|
d-----------------------------12 12---------------10h12 10h12----------------|
a--10--------------10----------------------10--------------------------------|
e----------------------------------------------------------------------------|

Chorus ( Right Notes but find the rhythym yourself)
g----------------------------------------------------------------------------|
d----------------------------------------------------------------------------|
a------------------------------------------1 2 3 3333333---------------------|
e------33 33333---------11111111--------------------------33333--------------|

Bridge
g-----------------------------------------------------------------------------|
d-----------------------------------------------------------------------------|
a----10 10 10 10  8 8  8 8   15 15 15 15------10 10------17 17---------------|
e-----------------------------------------------------------------------------|

Guitar Solo ( Throw in Some Fills)
g----------------------------------------------------------------------------|
d----------------------------------------------------------------------------|
a------------------------------------------1 2 3 3333333---------------------|
e------33 33333---------11111111--------------------------33333--------------|






Like us on Facebook