Under The Bridge (ver3) Bass Tab - Red Hot Chili Peppers






Under the Bridge by The Red Hot Chili PePPeRs



there is no bass in this song until the first chorus

                                         this is played sometimes

g-------------------------------------- ------------------

d----------------9--------------------- -----------------

a-9-----7-7--------7-------7-9-9--- ---9h11p9---

e------------------------9-7------------ ---------------



verse

g-----------------------------------------------------------7----

d-----------------------------------------------------------------

a----------2---------------------------2------------------------

e--0------------4------5-------0---------4-----5-------------



questions or comments write me

PePPeRs 01@aol.com

real name scott b









Like us on Facebook