Under The Bridge (ver4) Bass Tab - Red Hot Chili Peppers






Flea (the bassist) does not play until the chorus.

Chorus (Yes, that's an eleven)

G|--------9-------------------
D|11-9-9-9------9-------------
A|9--7-7---------7-9-99-------
E|----------9-7---------------

G|--------9-------------------
D|11-9-9-9------9-------------
A|9--7-7---------7-9-9h10h11p9
E|----------9-7---------------        (Play as many as you like)

Verse

G|-----------------------------
D|-----------------------------
A|-----------------------------
E|0__7_9-4-5--------0_7__9-5___

Pre-Chorus
is only

G|---------
D|---------
A|7________    (






Like us on Facebook