Under The Bridge (ver6) Bass Tab - Red Hot Chili Peppers






Artist:    Red Hot Chili Peppers
Song:      Under the Bridge
Album:     Blood, Sugar, Sex Magik / What Hits / Greatest Hits
Tuning:    Standart EADG
Tabbed by: Toowmas 

www.toowmas.tk

Key:
p = pull-off
h = hammer-on
 = slide down
~ = let ring

When Anthony sings: '..together we cry..' play this

G|-------------|
D|-------------|
A|-------------|
E|--0--0--0~~~-|       

After that play the chorus: it starts when
Anthony sings:'I don't ever wanna feel..'  

G|--------------------------------|-----------------------------------|
D|----------9-------9-------------|---------9-------9-----------------|
A|--------7---7-------7-9---9-9---|-----7-7---7-------7-9-9h11p9h11p9-|
E|--2---2-------7-5---------------|-2-----------9-7-------------------|

G|--------------------------------|-------------------------|
D|----------9--------9------------|---------9-------9-------|
A|--------7---7--------7-9---9-9--|-----7-7---7-------7-9---|
E|--2---2--------7-5--------------|-2-----------9-7---------|

After this part, play along with John:
 
G|----------------------|-----------------------------| -
D|----------------------|-----------------------------|  |
A|----------------------|-----------------------------|  |-3x
E|--0-----7--------4-5--|--0-----7--------9-5-5-------| -
       
G|----------------------|
D|----------------------|
A|--7~~~----------------|
E|----------------------|
    
Then the chorus again:

G|------------------------------------|--------------------------------|
D|----------9-------9-----------------|----------9-------9-------------|
A|------7-7---7-------7-9--9-11-9-7-9-|------7-7---7-------7-9\-------|
E|--2-----------9-7-------------------|--2-----------9-7----------2-2--|

G|-------------------------------| -
D|----------9-------9------------|  |
A|------7-7---7-------7-9--9-9-9-|  |-2x
E|--2-----------9-7--------------| -

The outro is played like this

G|-----------------------------------------------------|
D|----14---10---------------12---------------10--------|
A|--0----0------12-10-12-10----10-8---10-(12)----12-10-|
E|-----------------------------------------------------|

G|------------------------------------------------------------|
D|------14-----14--------12-----------------10-(12-10)--------|
A|--0------0------0-0-10----10-8---10-(12)-------------12-10--|
E|------------------------------------------------------------|

G|-----------------------------------------------------|
D|----14---10---------------12---------------10--------|
A|--0----0------12-10-12-10----10-8---10-(12)----12-10-|
E|-----------------------------------------------------|

G|----------------------------------|
D|----------------------------------| (this is 15 times 1, not 11)
A|----------------------------------|
E|--1-11111111111111000000003-3-3-3-|

G|-----------------------------------------------------| ----------
D|----14---10---------------12---------------10--------|           |
A|--0----0------12-10-12-10----10-8---10-(12)----12-10-|           |
E|-----------------------------------------------------|           |
                                                                   |-5x
G|------------------------------------------------------------|    |
D|------14-----14--------12-----------------10-(12-10)--------|    |
A|--0------0------0-0-10----10-8---10-(12)-------------12-10--|    |
E|------------------------------------------------------------| ---
       
G|-----------------------------------------------------|
D|----14---10---------------12---------------10--------|
A|--0----0------12-10-12-10----10-8---10-(12)----12-10-|
E|-----------------------------------------------------|

G|------------------------------------------------14---|
D|------14-----14--------12-----------------------14---|
A|--0------0------0-0-10----10-8-----0-----------------|
E|-----------------------------------------------------|

Please rate this tab.. And of course:
Have fun!

WWW.TOOWMAS.TK






Like us on Facebook