Under The Bridge Bass Tab - Red Hot Chili Peppers






This Tab Is By Ross Bolidai  ( Stam5555@Aol.com )

             
              Don't forget to vote for me or i'm gonna stop writing tabs!

              It's right cos' I got it from the chili's song book
              so Don't get pissed if ya' think it's wrong!
        
              Ps. I'm the bass player from korrosive so if
              You hear about us, love us cos' we rule!

        This song starts with Frusciantes guitar solo,
        Play this part when he gets to the chords

G|--0--7--3--5----0--7--3--5----0--7--3--5--------------------|
D|------------------------------------------------------------|
A|------------------------------------------------------------|
E|------------------------------------------------------------|       

        Play this riff at the same time as Frusciante until
        it gets to the chorus which is played as this  

G|-------------------------------------|--------------------------|
D|----------------------9--------------|--------------9-----------|
A|--------7-7----7--------7-9-9-9-9----|-----7-7---7-------7-9-9-9|
E|--2-2---------7---7-5----------------|-2-2----7---9-7-----------|
      Play this twice

G|----------------------|-----------------------------|
D|----------------------|-----------------------------|
A|----------------------|-----------------------------|
E|--0-----7--------4-5--|--0-----7--------9-5---------|
       
 play this 3 times

G|---------------------------------|
D|---------------------------------|
A|--7------------------------------|
E|---------------------------------|
    

And around the time Keidis sings, "...take me all the way," play
G|-------------------------------|
D|---------9-------9-------------|
A|-----7-7---7-------7-9\-------|
E|--2----------9-7----------2-2--|

 Then play the chorus twice


The outro is played like this, you've really got
to appreciate flea's playing here!
G|-----------------------------------------------------|
D|----14---10---------------12---------------10--------|
A|--0----0------12-10-12-10----10-8---10-(12)----12-10-|
E|-----------------------------------------------------|

G|------------------------------------------------------------|
D|------14-----14--------12-----------------10-(12-10)--------|
A|--0------0------0-0-10----10-8---10-(12)-------------12-10--|
E|------------------------------------------------------------|

G|-----------------------------------------------------|
D|----14---10---------------12---------------10--------|
A|--0----0------12-10-12-10----10-8---10-(12)----12-10-|
E|-----------------------------------------------------|

G|------------------------------------------------------|
D|------14-----14--------12-----------------------------|
A|--0------0------0-0-10----10-8-----0------------------|
E|------------------------------------------------------|






Like us on Facebook