Under The Bridge Live Bass Tab - Red Hot Chili Peppers






"Under the Bridge" by the Red Hot Chili Peppers
Bass part by Michael Balzary (Flea)
Tabbed by Dan Bogosian (UtBDan)
Visit UtBDan's band at:
http://www.geocities.com/underthbed/


NOTE: This is exactly what Flea plays on the "Off the Map" DVD.

If you want to know what's changed, he plays a part before the chorus, the chorus has 
slightly, and the bridge has changed A LOT.

POST INTRO, PRE-VERSE:
(after "Lonely as I am, together we cry")
G -------------------|
D -------------------|
A -------------------|
E -0~~~~~------------|

PRE-1st CHORUS:
G ------------------------|
D -------------14-14b-14--|
A -12----12-13-13-13b-13--|
E ------------------------|

CHORUS 1
G --------------------------------|----------------------------|
D --11------9--------9------------|-11------9------9-----------|
A --9---7-7---7-------7-9---99----|-9---7-7---7------7-11--77--|
E --------------7-5---------------|-------------7-5------------|

G -------------------------------1212b---|----------------------------|
D --11------9-------9-------12-14------14|-11------9-------9----------|
A --9---7-7---7-------7-9----------------|-9---7-7---7-------7-9~~/0--|
E --------------7-5----------------------|-------------7-5------------|

NOTE:
"9~~/0" means hold the note for a while, then slide down to the first
fret and let go of the string so it plays an open.

VERSE:
G -----------------------------|
D -----------------------------|
A -----------------------4-----|
E -0---7---4-5---0---7------55-|

PRE-2nd CHORUS:
G -----------------------|
D ------------17-14------|
A ------------------14---|
E -12h14-9~~~------------|

CHORUS 2
G --------------------------------|----------------------------|
D --11------9-------9-------------|-11------9------9-----------|
A --9---7-7---7-------7-9---99----|-9---7-7---7------7-11--22--|
E --------------7-5---------------|-------------7-5------------|

G --------------------------------|----------------------------|
D --11------9-------9-------------|-11------9-------9----------|
A --9---7-7---7-------7-9---99----|-9---7-7---7-------7-9~~9---|
E --------------7-5---------------|-------------7-5------------|

BRIDGE
G---9---9-------7------------5-----|
D-7---7---7---5----5-3---5-7---7-5-|
A----------------------------------|
E----------------------------------|

G---9---9-------7----------7---------|
D-7---7-------5----5-3---5---5h7-5-3-|
A------------------------------------|
E------------------------------------|

G---9---9-------7---------------|
D-7---7---7---5----5-3---5555---|
A-------------------------------|
E-------------------------------|

G-----------------------------3----------|
D---------3---------3--------------------|
A---------------------0h1-0h1---0h3-0h3--|
E-0h1-0h1---0h1-0h1----------------------|


UNDER THE BRIDGE DOWNTOWN
G---9---9-------7------------5-----|
D-7---7---7---5----5-3---5-7---7-5-|
A----------------------------------|
E----------------------------------|

G---9---9-------7----------7---------|
D-7---7---7---5----5-3---5---5h7-5h7-|
A------------------------------------|
E------------------------------------|

G---9---9-------7-----------5---------|
D-7---7---7---5----5-3---5h7---7-5h7--|
A-------------------------------------|
E-------------------------------------|

G---9---9-------7-------------------------|
D-7---7---7---5----5-3--------------------|
A------------------------------3-7--7-5---|
E---------------------------35----------7-|

G---9---9-------7------------5-----|
D-7---7---7---5----5-3---5-7---7-5-|
A----------------------------------|
E----------------------------------|

G---9---9-------75----------1-----|
D-7---7---7---5--75-3---1-3---3-1-|
A---------------------------------|
E---------------------------------|

G---9---10-9-----7--------------|
D-7---7--------5----5-3----33---|
A-------------------------------|
E-------------------------------|

G---9---9-------7------------|
D-7---7---7---5----3----3-3--|
A----------------------------|
E----------------------------|

OUTRO
G------------------------------|
D-22--20--18---15---14---------|
A----------------14---13--13---|
E------------------------------|

G------------------19----------17-|
D-22--20--22b---17---17-15--15----|
A---------------------------------|
E---------------------------------|

G----21------21-----------19--------------17-------|
D-19---19-19---19-19---17----17-15--17-19----19-17-|
A--------------------------------------------------|
E--------------------------------------------------|

G--------------------------------|
D--19---19---17---15---17~~~~----|
A--------------------------------|
E--------------------------------|






Like us on Facebook