Universally Speaking Solo (ver3) Tab - Red Hot Chili Peppers






E|--------------------------------|
A|-7------------------------------|
D|-----979---767679---7679--------|
G|---------------------------7777-|
B|--------------------------------|
E|--------------------------------|



E|------------------------------------|
A|-7-------------------------10101010-|
D|-----979---767679---7679------------|
G|------------------------------------|
B|------------------------------------|
E|------------------------------------|



E|--------------------------------|
A|-7------------------------------|
D|-----979---767679---7679--------|
G|---------------------------7777-|
B|--------------------------------|
E|--------------------------------|



E|---------------------------------|
A|---------------------------------|
D|---------------------7-----------|
G|-754-4/5--------77---------------|
B|-----------55--------------------|
E|---------------------------------|



So, this is the solo and it's correct. If something's wrong, listen to the song.
While listening to it you can play it without any mistakes.

So HAVE FUN!!!






Like us on Facebook