Venice Queen Chords - Red Hot Chili Peppers






Red Hot Chili Peppers - Venice Queen
Tabbed By: Jack Ramsay
EMail: fishyfinger21@hotmail.com

Venice Queen last track of their new album By The Way.
This is how i play it.

|-------------------------------------|
|-----12-----12-----12----------------|
|---9----9--------9----9----12--11----|
|-9--------9----9--------9------------|
|-------------------------------------|
|-------------------------------------|Intro then cords below
 
Em Emsus2 (in arpegio of an octave) 

Cmaj7 - A7sus4 - Em (octave) 


Acoustic Bridge

Em - C (x3) 

A - Dsus2 


Second Acoustic Bridge: 

Asus2 - G6 - Fmaj7 / C -Dsus2

Lead Licks over Acoustics.

e-------------------- 
B-13-12--10~-------

Thats all ive got. any changes apreciated at fishyfinger21@hotmail.com cheers






Like us on Facebook