We Believe Bass Tab - Red Hot Chili Peppers






Band:  Red Hot Chili Peppers
Title: We Believe
Album: Stadium Arcadium
Tabbed by: Jon Turner jrt5024@gmail.com

Another one of my favorites. Its starting to seem like every song on this album is one
my favorites >_< I dont deny it!

This song was ridiculously hard to figure out because you can barely hear half the stuff
is playing. The mix really puts him in the background with a lot of other stuff
drums, effects, etc.) covering him up and sounding bassier than he does. I guarantee you 
isnt anywhere close to perfect, and I really hope someone who can hear better than I can
come along and tab this correctly. Im really sure the verse and are right  (which isnt 
to brag about), just that the chorus is totally goofed up. I'd give myself 3 stars, so 
dont expect much higher than that.

E-mail comments, suggestions, error-mistakes, etc. to
jrt5024@gmail.com. Thx! :D


Verse 1
G|12----12--------|11--11----------|
D|----------------|----------------|
A|----------------|----------------|
E|12----12--------|10--10----------|

G|12----12--12---12|11--11----------|
D|-----------------|----------------|
A|-----------------|----------------|
E|12----12--12---12|10--10----------|

Repeat 10x

Chorus - :54
G|----------------|----------------|
D|----------------|5--55-55-55-5-05|
A|----7--7--7-7-57|----------------|
E|0--0--0--0------|----------------|

G|----------------|----------------|
D|7---7-77-77-7-57|5---5-55-55-5---|
A|----------------|----------------|
E|----------------|----------------|
Repeat 1x

Verse 2 - 1:14
Repeat verse riff 8x

Bridge - 1:53
G|9-----9---------|7-----7---------|
D|10----10--------|9-----9---------|
A|----------------|----------------|
E|----------------|----------------|

G|----------------|----------------|
D|10----10--------|9-----9---------|
A|----------------|----------------|
E|----------------|----------------|

Verse 3 - 2:03
Repeat verse riff 4x

Chorus 2 - 2:22
G|----------------|------------------|
D|----------------|5--55-55-55-5-05--|
A|----7--7--7-7-57|------------------|
E|0--0--0--0-----|-------------------|

G|-----------------|-----------------|
D|7--77-77-77-7-7/9|5--55-55-55-5-7h9|
A|-----------------|-----------------|
E|-----------------|-----------------|

G|----------------|-----------------|
D|----------------|5--55-55-55-5-7/9|
A|----7--7--7-7-57|-----------------|
E|0--0--0--0------|-----------------|

G|----------------|------------------|
D|7---7-77-77-797|5---5-55-55-5------|
A|----------------|------------------|
E|----------------|------------------|

G|----------------|----------------|
D|----------------|5--55-55----5-5-|
A|----7--7--7-7-57|---------057-7--|
E|0--0--0--0------|----------------|

G|-------------------|------------------|
D|7--77-77s9s7-7s9s7-|5--55-55--7h9-7-5-|
A|-------------------|------------------|
E|-------------------|------------------|

G|----------------|----------------|
D|----------------|5--55-55------5-|
A|----7--7--7-7-57|------------57-7|
E|0--0--0--0------|----------------|

G|-----------------|---------------|
D|777777777/9999977|5--55-55-------|
A|-----------------|---------------|
E|-----------------|---------------|

Verse 4 - 3:02
Repeat verse riff 6x

G|12----12--------|
D|----------------|
A|----------------|
E|12----12--------|






Like us on Facebook