We Believe Solo Tab - Red Hot Chili Peppers






this is my version of the solo at 1:57 as the other guy didnt have it i thought id put 
in.

  on this one pull back sharply
|------  /|-----------------------------------------------------|
|-------/-|------12-12-12p10-12-12p10-12-12p10-12p10-10b12(hold)|
|-12brbrbr-|-12s14-----------------------------------------------|
|----------|-----------------------------------------------------|
|----------|-----------------------------------------------------|
|----------|-----------------------------------------------------|
              mess around with
|------------------  /----------|
|-10s12-12-12-12s10-10--and-12~--|
|----------------------12--------|
|--------------------------------|
|--------------------------------|
|--------------------------------|


then theres the solo that starts at 2:41

|-----------|-------|
|-12-15-15--|-15b17-|
|-----------|-------| improvise a fast funky solo using
|---x-4/5---|-------|
|-----------|-------|
|-----------|-------|

|----12-and-15-|
|-15-----------|
|--------------| use a lot of bends
|--------------|
|--------------|
|--------------|

i appreciate its not great but i tried, ive got the basic gist of it for you now use 
talent to make it up.
thanks






Like us on Facebook