Wet Sand Intro Tab - Red Hot Chili Peppers






Wet Sand
Red Hot Chili Peppers
STADIUM ARCADIUM

tabbed by tVaugnor (this is my first tab, so I don't know how accurate it is)




Listen to the song to hear the strumming pattern of the chords
         G      D           Em            Bm

E--------3------2-----------0-------------2--------------------------------
B--------3------3-----------0-------------3--------------------------------
G--------0------2-----------0-------------4--------------------------------
D--------0------0--------2--2-------------4--------------------------------
A--------2-----------0h2----2-----b5--2---2------2-5-2-0-------------------
E--------3------------------0-------------2--------------3-----------------


         G                  D                 Em            Bm
E--------3------------------2-----------------0-------------2-----------------
B--------3------------------3-----------------0-------------3-----------------
G--------0------------------2-----------------0-------------4-----------------
D--------0-----0h2p0--------0-----0h20--------2-------------4-----------------
A--------2------------2p0---------------2p0---2-----b5--2---2--------0-2-4----
E----3---3------------------------------------0-------------2------3----------


         G                  D                  Em                 Bm
E--------3------------------2------------------0------------------2---------
B--------3------------------3------------------0------------------3---------
G--------0------------------2------------------0------------------4---------
D--------0------------------0-----0-2-4-5--0---2------------------4---------
A--------2-------0-2-5--0----------------------2-----5s2-2s0--2---2---------
E----3---3-----3-------------------------------0------------------2---------






Like us on Facebook