Wet Sand Solo Tab - Red Hot Chili Peppers






Tuning: Standard

e|--16--16--16--16--19-16-19-16--16p14-14h16---------------------------------|
B|-----------------------------------------------16--16--14h16p14--12h14-12--|
G|---------------------------------------------------------------------------|
D|---------------------------------------------------------------------------|
A|---------------------------------------------------------------------------|
E|---------------------------------------------------------------------------|

e|-------------11------18--16~---23-23-23-23-23-23-19-21-21h23-21-19-21-----|
B|--12-11h12-------12--------------------------------------------------------|
G|---------------------------------------------------------------------------|
D|---------------------------------------------------------------------------|
A|---------------------------------------------------------------------------|
E|---------------------------------------------------------------------------|

e|--21h23-19/2119--19-18h19-/23-19--18h19-19--18h19p18-16-16--14------------|
B|----------------------------------------------------------------16---------|
G|---------------------------------------------------------------------------|
D|---------------------------------------------------------------------------|
A|---------------------------------------------------------------------------|
E|---------------------------------------------------------------------------|

e|--14/1814-14/16--14-16-14-------------------------------------------------|
B|----------------------------16~--------------------------------------------|
G|---------------------------------------------------------------------------|
D|---------------------------------------------------------------------------|
A|---------------------------------------------------------------------------|
E|---------------------------------------------------------------------------|






Like us on Facebook