What Is Soul Bass Tab - Red Hot Chili Peppers






Red Hot Chili Peppers - What Is Soul
Tabbed By: Jon
EMail: jonnnythm@aol.com


This is "What is Soul" a cover of the Funkadelic song that 
sounds nothing like the origninal the the Peppers played on their
"Off The Map" live DVD. This is just the main riff. It's pretty easy.

Standard Tuning

G:||-------------------------------------------------:||
D:||----------------3-------------------------3------:||
A:||--3--3-5-----3----5-----3--3-5---------34----5-3-:||
E:||-5--5-------5--5-------5--5----1-2--345----------:||
===========
Red Hot Chili Peppers
What Is Soul?
Off The Map Video
Tabbed By:Lucas Massarini

This is a very easy song to play if you know the rythm

g |-------------------------------------|
d |------------3---------------3--------|
a |-----5-------3-----35------3-5-------|
e |-0505----050----050--13--35----------|


I'm 100% Sure This Is OK.
Thanks






Like us on Facebook