Yertle The Turtle (ver2) Bass Tab - Red Hot Chili Peppers






"Yertle the Turtle" by the Red Hot Chili Peppers
Bass part by Michael Balzary (Flea)
Tabbed by Dan Bogosian (UtBDan)
Visit UtBDan's band at:
http://www.geocities.com/underthbed/


MAIN RIFF

    S    S P  S   S   P  S S
G ------------------------------|
D ---------19---------5---------|
A ----------------5h7----7-5----|
E --0----0----0-----------------|

    S    S P  S   S    S
G ------------------------|
D ---------19-------------|
A ----------------5h7--3--|
E --0----0----0-----------|

SIDE RIFF 1
    S    S  S  S  S  S  S  S S
G ------------------------------|
D ------------------------------|
A ----------1--3--1----------1--|
E --3----3-----------3--3--3----|

G --------------|
D -------17p15--|
A -15h17--------|
E --------------|
    S    S  S  S  S  S  S  S S
G ------------------------------|
D ------------------------------|
A ----------1--3--1----------1--|
E --3----3-----------3--3--3----|

SIDE RIFF 2

G ------------------------------|
D ------------------------------|
A --3-3-3-3-3-3-3-2-1-1-1-1--0--|
E ------------------------------|
                      S S S
G ------------------------------|
D ------------------------------|
A ------1-1-3-3-5-5-----4-4p3---|
E --3-3---------------3---------|

SIDE RIFF 3

G ---------|
D ---------|
A ---------|
E --3--5---|

G ------------------|
D ------------------|
A ------------------|
E --3--5------0--2--|

G ---------|
D ---------|
A ---------|
E --3--5---|






Like us on Facebook