Shine Tab - Richie Kotzen






Richie Kotzen - Shine
Album: Change/actual size (mr. Big)
Tabbed by: Mike luard - mikeluard@hotmail.com

I've done the Mr. Big one cause its probably more known, the one on his
Change album is in the key of D. This ones in Eb.

Intro (8 bars)
e|--5-----6-----------4--4-------------------------------------|
B|--7-----6------6----4--4----16-16-16-16-16-16-15-15-15-16-18-|
G|--7-----7---8-------5--5----15-15-15-15-15-15-15-15-15-15-15-|
D|--7-----8-----------6--6-------------------------------------|
A|--5-----8-----------6--6-------------------------------------|
E|--------6-----------4--3--1----------------------------------|

e|-----------------------|
B|-9-9-9-9-9-9-9-9-8-8-6-|
G|-8-8-8-8-8-8-8-8-8-8-8-|
D|-----------------------|
A|-----------------------|
E|-----------------------|

Eb       Bb     Ab
I never really feel quit right and I dont know why,
Ab
all I know is somethings wrong
Eb     Bb     Ab
Every time I look at you you seem so alive
Eb   Bb  Cm   Ab
Tell me how do you do it, walk me through it i'm following every footstep
Cm
Maybe on your own you'd take a cautious step
Ab       Bb
'til you wanna give it up all I want is for you to ...


Eb Bb  Ab
Shine, Shine down on me
Eb      Bb   Ab
Shine on this life thats burning out


Eb       Bb     Ab
I say a lot of things sometimes that don't come out
right and I act like I don't know why
Eb  BbAb
I guess a reaction is all I was looking for
Eb              Bb      Cm
When you looked through me you really knew me like
Ab
no one has ever looked before
Cm
Maybe on your own you'd take a cautious step
Ab               Bb
'til you wanna give it up all I want is for you to ...

Solo
e|----------------------------------------------------|
B|----------------------------------------------------|
G|----------------------------------------------------|
D|-----------------------------1/3-5------------------|
A|--/10-8-8-6-6----------6-1-3-------6-3-1-8/--6-1-3-|
E|--------------8-8-6-6-8-----------------------------|

e|---------------------------------------------------------|
B|---------------------------------------------------------|
G|-5-3-3---------------------------------------------------|
D|-------5-5-3-------1-------------------------------------|
A|-------------6-1-3---3-5---------------------------------|
E|---------------------------9---8---6---4---2-------------|






Like us on Facebook