Rock And Roll Hoochie Koo Bass Tab - Rick Derringer




X = mute note
/ = slide up
 = slide down

----------------------------------------------------------5--------------------|
----------------------------------------------------5--7------7---5---7-------|
----------------3-------------------5----------5--7----------------------------|
---1-1----1/3h5------3-3-------3/5h7-------5-5---------------------------------|


------------------------------------------------------12/13--12/13--12/13--12/13--12/13--|
-------------------------------7---------------------11/12--11/12--11/12--11/12--11/12--|
---------------3-----5----3--------------------------------------------------------------|
---1-1----1/3h5-----------------------5----3----0----------------------------------------|


------------------------------------------------------------------------------|
---------------------------7-7--5--------------7-----------------------------|
------------3---5---3--------------7--6--5------------------------------------|
-----55x55-------------5--------------------8---------------------------------|


------------------------------------------------------------------------------|
------------------5-6-7--------7-7--5-----------------------------------------|
------------3---5-----------------------7--6--5-------------------------------|
-----55x55---------------------------------------8----5----------------------|

------------------------------------------------------------------------------|
---------------------------7-7--5--------------7-----------------------------|
------------3---5---3--------------7--6--5------------------------------------|
-----55x55-------------5--------------------8---------------------------------|

------------------------------------------------------------------------------|
------------------5-6-7--------7-7--5-----------------------------------------|
------------3---5-----------------------7--6--5-------------------------------|
-----55x55---------------------------------------8----5----------------------|

----------------------------------------------------------5--------------------|
----------------------------------------------------5--7------7---5---7-------|
----------------3-------------------5----------5--7----------------------------|
---1-1----1/3h5------3-3-------3/5h7-------5-5---------------------------------|

   so thats basically it, once the riffs over start over again, listen to the song for 
timing. experiment with it and add notes to it. im pretty sure it's correct, enjoy and 
me for any comments at
hot_raven_taco@hotmail.com

Robin .G

Its my first tab aswell... dont under estimate it.
ĂŽnscrie-te la newsletter


Join the ranks ! LIKE us on Facebook