Feel The Same Tab - RIOT




-----------------------------------------------------------------
Feel the Same - Riot
-----------------------------------------------------------------
Tabbed by:  Scott Lawson
Email: salawson22@comcast.net

Tuning: Standard



e|---------------------------------------------------------------|
B|---------------------------------------------------------------|
G|-------------2-------2-----------------------------------------|
D|-----2---2h3---3-3h4---3---------------------------------------|
A|---------------------------------------------------------------|
E|-0-0---0-------------------------------------------------------|



e|---------------------------------------------------------------|
B|---------------------------------------------------------------|
G|-2---2---------------------------------------------------------|
D|-2-2-2---------------------------------------------------------|
A|-0-2-0--0------------------------------------------------------|
E|---0------0-2-3------------------------------------------------|



e|---------------------------------------------------|------------|
B|---------------------------------------------------|------------|
G|-9-9-9-9-12-9--7-7-7-7-9-7----------------------7--|-9-7-9------|
D|-9-9-9-9-12-9--7-7-7-7-9-7--7-7-7-7-7--x--7--x--7--|-9-7-9------|
A|-7-7-7-7-10-7--5-5-5-5-7-5--7-7-7-7-7--x--9--x--5--|-7-5-7------|
E|----------------------------5-5-5-5-5--x--7--x-----|------------|




| /  slide up
|   slide down
| h  hammer-on
| p  pull-off
Aboneaza-te la newsletter
Join the ranks ! LIKE us on Facebook