I Believe Chords - Riverside




Riverside - I Believe

intro:

e|-0h1p0-0h1p0-|
H|-3-----3-----|
G|-2-----3-----|
D|-0-----------|
A|-------------|
E|-------------|
   d     d5+
   
chorus:
   
e|-0h1p0-0-0h1p0-|
H|-3-----3-3-----|
G|-2-----0-3-----|
D|-0-----2-------|
A|-------3-------|
E|---------------|
   d     C d5+
   
   
e|-0--0--0-|
H|-1--1--1-|
G|-2--0--2-|
D|-2--2--3-|
A|-0--3--3-|
E|---------|
   a  C  F

solo:

e|-10-10-10-8-10-8-8-8-6-8-6-6-6-3|
ĂŽnscrie-te la newsletter


Join the ranks ! LIKE us on Facebook