In Two Minds Solo Tab - Riverside




Riverside - Out Of Myself - In Two Minds

Solo(2:56)
e|-------------------------------15~~-14--14h15p14-12-14--14h15p14-12-14~~~--|
H|-15~~~~--12h13p12p10h12--5/12----------------------------------------------|
G|---------------------------------------------------------------------------|
D|---------------------------------------------------------------------------|
A|---------------------------------------------------------------------------|
E|---------------------------------------------------------------------------|

e|---------------------------------------------------------------------------------------------|
H|--/5--/10--/12--/17---17-17-17/15-15-15-15-15-15/12~~--12h13p12p10h12-12/13-10--10/5~~~~-----|
G|---------------------------------------------------------------------------------------------|
D|---------------------------------------------------------------------------------------------|
A|---------------------------------------------------------------------------------------------|
E|---------------------------------------------------------------------------------------------|

Intro(1:26)
e|-----------------------------------------------------------------------------------------------|
H|-----------8---8/10~~~---------8---8/10~~~-----13-12-8-8h10--------8---8/10~~~~~~~~~~~~~~~-----|
G|---------9---9---------------9---9-------------------------------9---9-------------------------|
D|------/7------------------/7----------------7~-----------------7-------------------------------|
A|-----------------------------------------------------------------------------------------------|
E|-----------------------------------------------------------------------------------------------| 

ĂŽnscrie-te la newsletter


Join the ranks ! LIKE us on Facebook