Sweet Home Chicago (ver2) Tab - Robert Johnson




'SWEET HOME CHICAGO'
Robert Johnson

Tabber:
Patrice Althaus
Switzerland


I think, the tabs are correct ;)

INTRO:

e |------10--------10--------9-------10--------10-----------------|
B |---12----12--12-----12----10---12----12--12----12---10---8-----|
G |------------------------------------------------------------9--|
D |---------------------------------------------------------------|
A |---------------------------------------------------------------|
E |---------------------------------------------------------------|

                                                      B7
e |------4---------3--------2------0-------------------2----------|
B |--------------------------------0-------------------0----------|
G |---4-----4---3-----3---2----2---1-------------------2----------|
D |----------------------------------------------------1----------|
A |------------------------------------0---1---2---0---2---0------|
E |---------------------------------------------------------------|


MAINRIFF:

      E                       A
e |---------------------------------------------------|
B |---------------------------------------------------|
G |---------------------------------------------------|
D |---------------------------2--2--4--4--6--6--4--4--|
A |---2--2--4--4--6--6--4--4--0--0--0--0--0--0--0--0--|
E |---0--0--0--0--0--0--0--0--------------------------|


     B7
e |--2----|
B |--0----|
G |--2----|
D |--1----|
A |--2----|
E |-------|


The song goes like this pattern:

E
A
E
E
A
A
E
E
B7 (transition-chord)
A
E
B7 (transition-chord)


you play the 'pattern E', then 'pattern A', 'pattern E' twice, 'pattern A' twice, 
E' twice again, then comes the transition-chord B7, then you play 'pattern A', 'pattern E' and 
comes the transition-chord B7 again.

Sorry, my english is very bad, 'cause I'm from Switzerland ;)

ĂŽnscrie-te la newsletter


Join the ranks ! LIKE us on Facebook